  0
SECTION
  2
HEADER
  9
$ACADVER
  1
AC1014
  9
$HANDSEED
  5
FFFF
  9
$MEASUREMENT
 70
     1
  0
ENDSEC
  0
SECTION
  2
TABLES
  0
TABLE
  2
VPORT
  5
8
330
0
100
AcDbSymbolTable
 70
     4
  0
VPORT
  5
2E
330
8
100
AcDbSymbolTableRecord
100
AcDbViewportTableRecord
  2
*ACTIVE
 70
     0
 10
0.0
 20
0.0
 11
1.0
 21
1.0
 12
210.0
 22
148.5
 13
0.0
 23
0.0
 14
10.0
 24
10.0
 15
10.0
 25
10.0
 16
0.0
 26
0.0
 36
1.0
 17
0.0
 27
0.0
 37
0.0
 40
341.0
 41
1.24
 42
50.0
 43
0.0
 44
0.0
 50
0.0
 51
0.0
 71
     0
 72
   100
 73
     1
 74
     3
 75
     0
 76
     0
 77
     0
 78
     0
  0
ENDTAB
  0
TABLE
  2
LTYPE
  5
5
330
0
100
AcDbSymbolTable
 70
     1
  0
LTYPE
  5
14
330
5
100
AcDbSymbolTableRecord
100
AcDbLinetypeTableRecord
  2
BYBLOCK
 70
     0
  3

 72
    65
 73
     0
 40
0.0
  0
LTYPE
  5
15
330
5
100
AcDbSymbolTableRecord
100
AcDbLinetypeTableRecord
  2
BYLAYER
 70
     0
  3

 72
    65
 73
     0
 40
0.0
  0
LTYPE
  5
16
330
5
100
AcDbSymbolTableRecord
100
AcDbLinetypeTableRecord
  2
CONTINUOUS
 70
     0
  3
Solid line
 72
    65
 73
     0
 40
0.0
  0
ENDTAB
  0
TABLE
  2
LAYER
  5
2
100
AcDbSymbolTable
 70
2
  0
LAYER
  5
50
100
AcDbSymbolTableRecord
100
AcDbLayerTableRecord
  2
0
 70
0
  6
CONTINUOUS
  0
LAYER
  5
51
100
AcDbSymbolTableRecord
100
AcDbLayerTableRecord
  2
Layer_1
 70
0
  6
CONTINUOUS
  0
ENDTAB
  0
TABLE
  2
STYLE
  5
3
330
0
100
AcDbSymbolTable
 70
     1
  0
STYLE
  5
11
330
3
100
AcDbSymbolTableRecord
100
AcDbTextStyleTableRecord
  2
STANDARD
 70
     0
 40
0.0
 41
1.0
 50
0.0
 71
     0
 42
2.5
  3
txt
  4

  0
ENDTAB
  0
TABLE
  2
VIEW
  5
6
330
0
100
AcDbSymbolTable
 70
     0
  0
ENDTAB
  0
TABLE
  2
UCS
  5
7
330
0
100
AcDbSymbolTable
 70
     0
  0
ENDTAB
  0
TABLE
  2
APPID
  5
9
330
0
100
AcDbSymbolTable
 70
     2
  0
APPID
  5
12
330
9
100
AcDbSymbolTableRecord
100
AcDbRegAppTableRecord
  2
ACAD
 70
     0
  0
ENDTAB
  0
TABLE
  2
DIMSTYLE
  5
A
330
0
100
AcDbSymbolTable
 70
     1
  0
DIMSTYLE
105
27
330
A
100
AcDbSymbolTableRecord
100
AcDbDimStyleTableRecord
  2
ISO-25
 70
     0
  3

  4

  5

  6

  7

 40
1.0
 41
2.5
 42
0.625
 43
3.75
 44
1.25
 45
0.0
 46
0.0
 47
0.0
 48
0.0
140
2.5
141
2.5
142
0.0
143
0.03937007874016
144
1.0
145
0.0
146
1.0
147
0.625
 71
     0
 72
     0
 73
     0
 74
     0
 75
     0
 76
     0
 77
     1
 78
     8
170
     0
171
     3
172
     1
173
     0
174
     0
175
     0
176
     0
177
     0
178
     0
270
     2
271
     2
272
     2
273
     2
274
     3
340
11
275
     0
280
     0
281
     0
282
     0
283
     0
284
     8
285
     0
286
     0
287
     3
288
     0
  0
ENDTAB
  0
TABLE
  2
BLOCK_RECORD
  5
1
330
0
100
AcDbSymbolTable
 70
     1
  0
BLOCK_RECORD
  5
1F
330
1
100
AcDbSymbolTableRecord
100
AcDbBlockTableRecord
  2
*MODEL_SPACE
  0
BLOCK_RECORD
  5
1B
330
1
100
AcDbSymbolTableRecord
100
AcDbBlockTableRecord
  2
*PAPER_SPACE
  0
ENDTAB
  0
ENDSEC
  0
SECTION
  2
BLOCKS
  0
BLOCK
  5
20
330
1F
100
AcDbEntity
  8
0
100
AcDbBlockBegin
  2
*MODEL_SPACE
 70
     0
 10
0.0
 20
0.0
 30
0.0
  3
*MODEL_SPACE
  1

  0
ENDBLK
  5
21
330
1F
100
AcDbEntity
  8
0
100
AcDbBlockEnd
  0
BLOCK
  5
1C
330
1B
100
AcDbEntity
 67
     1
  8
0
100
AcDbBlockBegin
  2
*PAPER_SPACE
  1

  0
ENDBLK
  5
1D
330
1B
100
AcDbEntity
 67
     1
  8
0
100
AcDbBlockEnd
  0
ENDSEC
  0
SECTION
  2
ENTITIES
  0
SPLINE
  5
100
100
AcDbEntity
  8
Layer_1
 62
1
100
AcDbSpline
 70
8
 71
3
 72
8
 73
4
 74
0
 40
0
 40
0
 40
0
 40
0
 40
1
 40
1
 40
1
 40
1
 10
29.581972
 20
33.692820
 30
0.0
 10
29.581972
 20
34.484380
 30
0.0
 10
29.757873
 20
35.078047
 30
0.0
 10
30.109676
 20
35.473820
 30
0.0
  0
SPLINE
  5
101
100
AcDbEntity
  8
Layer_1
 62
1
100
AcDbSpline
 70
8
 71
3
 72
8
 73
4
 74
0
 40
0
 40
0
 40
0
 40
0
 40
1
 40
1
 40
1
 40
1
 10
30.109676
 20
35.473820
 30
0.0
 10
30.470274
 20
35.869600
 30
0.0
 10
30.940811
 20
36.067490
 30
0.0
 10
31.521286
 20
36.067490
 30
0.0
  0
SPLINE
  5
102
100
AcDbEntity
  8
Layer_1
 62
1
100
AcDbSpline
 70
8
 71
3
 72
8
 73
4
 74
0
 40
0
 40
0
 40
0
 40
0
 40
1
 40
1
 40
1
 40
1
 10
31.521286
 20
36.067490
 30
0.0
 10
32.110556
 20
36.067490
 30
0.0
 10
32.585490
 20
35.869600
 30
0.0
 10
32.946088
 20
35.473820
 30
0.0
  0
SPLINE
  5
103
100
AcDbEntity
  8
Layer_1
 62
1
100
AcDbSpline
 70
8
 71
3
 72
8
 73
4
 74
0
 40
0
 40
0
 40
0
 40
0
 40
1
 40
1
 40
1
 40
1
 10
32.946088
 20
35.473820
 30
0.0
 10
33.315481
 20
35.086840
 30
0.0
 10
33.500177
 20
34.493173
 30
0.0
 10
33.500177
 20
33.692820
 30
0.0
  0
LWPOLYLINE
  5
104
100
AcDbEntity
  8
Layer_1
 62
1
100
AcDbPolyline
 90
4
 70
0
 10
21.125508
 20
33.692820
 30
0.0
 10
21.125508
 20
28.151930
 30
0.0
 10
29.581972
 20
28.151930
 30
0.0
 10
29.581972
 20
33.692820
 30
0.0
  0
SPLINE
  5
105
100
AcDbEntity
  8
Layer_1
 62
1
100
AcDbSpline
 70
8
 71
3
 72
8
 73
4
 74
0
 40
0
 40
0
 40
0
 40
0
 40
1
 40
1
 40
1
 40
1
 10
33.500177
 20
18.455360
 30
0.0
 10
33.500177
 20
17.655007
 30
0.0
 10
33.315481
 20
17.056940
 30
0.0
 10
32.946088
 20
16.661160
 30
0.0
  0
SPLINE
  5
106
100
AcDbEntity
  8
Layer_1
 62
1
100
AcDbSpline
 70
8
 71
3
 72
8
 73
4
 74
0
 40
0
 40
0
 40
0
 40
0
 40
1
 40
1
 40
1
 40
1
 10
32.946088
 20
16.661160
 30
0.0
 10
32.576695
 20
16.265380
 30
0.0
 10
32.101761
 20
16.067490
 30
0.0
 10
31.521286
 20
16.067490
 30
0.0
  0
SPLINE
  5
107
100
AcDbEntity
  8
Layer_1
 62
1
100
AcDbSpline
 70
8
 71
3
 72
8
 73
4
 74
0
 40
0
 40
0
 40
0
 40
0
 40
1
 40
1
 40
1
 40
1
 10
31.521286
 20
16.067490
 30
0.0
 10
30.932016
 20
16.067490
 30
0.0
 10
30.461479
 20
16.265380
 30
0.0
 10
30.109676
 20
16.661160
 30
0.0
  0
SPLINE
  5
108
100
AcDbEntity
  8
Layer_1
 62
1
100
AcDbSpline
 70
8
 71
3
 72
8
 73
4
 74
0
 40
0
 40
0
 40
0
 40
0
 40
1
 40
1
 40
1
 40
1
 10
30.109676
 20
16.661160
 30
0.0
 10
29.757873
 20
17.065733
 30
0.0
 10
29.581972
 20
17.663800
 30
0.0
 10
29.581972
 20
18.455360
 30
0.0
  0
LWPOLYLINE
  5
109
100
AcDbEntity
  8
Layer_1
 62
1
100
AcDbPolyline
 90
2
 70
0
 10
33.500177
 20
33.692820
 30
0.0
 10
33.500177
 20
18.455360
 30
0.0
  0
SPLINE
  5
10a
100
AcDbEntity
  8
Layer_1
 62
1
100
AcDbSpline
 70
8
 71
3
 72
8
 73
4
 74
0
 40
0
 40
0
 40
0
 40
0
 40
1
 40
1
 40
1
 40
1
 10
21.125508
 20
18.455360
 30
0.0
 10
21.125508
 20
17.655007
 30
0.0
 10
20.940811
 20
17.056940
 30
0.0
 10
20.571418
 20
16.661160
 30
0.0
  0
SPLINE
  5
10b
100
AcDbEntity
  8
Layer_1
 62
1
100
AcDbSpline
 70
8
 71
3
 72
8
 73
4
 74
0
 40
0
 40
0
 40
0
 40
0
 40
1
 40
1
 40
1
 40
1
 10
20.571418
 20
16.661160
 30
0.0
 10
20.202025
 20
16.265380
 30
0.0
 10
19.727091
 20
16.067490
 30
0.0
 10
19.146616
 20
16.067490
 30
0.0
  0
SPLINE
  5
10c
100
AcDbEntity
  8
Layer_1
 62
1
100
AcDbSpline
 70
8
 71
3
 72
8
 73
4
 74
0
 40
0
 40
0
 40
0
 40
0
 40
1
 40
1
 40
1
 40
1
 10
19.146616
 20
16.067490
 30
0.0
 10
18.557346
 20
16.067490
 30
0.0
 10
18.086809
 20
16.265380
 30
0.0
 10
17.735006
 20
16.661160
 30
0.0
  0
SPLINE
  5
10d
100
AcDbEntity
  8
Layer_1
 62
1
100
AcDbSpline
 70
8
 71
3
 72
8
 73
4
 74
0
 40
0
 40
0
 40
0
 40
0
 40
1
 40
1
 40
1
 40
1
 10
17.735006
 20
16.661160
 30
0.0
 10
17.383203
 20
17.065733
 30
0.0
 10
17.207302
 20
17.663800
 30
0.0
 10
17.207302
 20
18.455360
 30
0.0
  0
LWPOLYLINE
  5
10e
100
AcDbEntity
  8
Layer_1
 62
1
100
AcDbPolyline
 90
4
 70
0
 10
29.581972
 20
18.455360
 30
0.0
 10
29.581972
 20
24.959310
 30
0.0
 10
21.125508
 20
24.959310
 30
0.0
 10
21.125508
 20
18.455360
 30
0.0
  0
SPLINE
  5
10f
100
AcDbEntity
  8
Layer_1
 62
1
100
AcDbSpline
 70
8
 71
3
 72
8
 73
4
 74
0
 40
0
 40
0
 40
0
 40
0
 40
1
 40
1
 40
1
 40
1
 10
17.207302
 20
33.692820
 30
0.0
 10
17.207302
 20
34.484380
 30
0.0
 10
17.378806
 20
35.078047
 30
0.0
 10
17.721814
 20
35.473820
 30
0.0
  0
SPLINE
  5
110
100
AcDbEntity
  8
Layer_1
 62
1
100
AcDbSpline
 70
8
 71
3
 72
8
 73
4
 74
0
 40
0
 40
0
 40
0
 40
0
 40
1
 40
1
 40
1
 40
1
 10
17.721814
 20
35.473820
 30
0.0
 10
18.073617
 20
35.869600
 30
0.0
 10
18.548551
 20
36.067490
 30
0.0
 10
19.146616
 20
36.067490
 30
0.0
  0
SPLINE
  5
111
100
AcDbEntity
  8
Layer_1
 62
1
100
AcDbSpline
 70
8
 71
3
 72
8
 73
4
 74
0
 40
0
 40
0
 40
0
 40
0
 40
1
 40
1
 40
1
 40
1
 10
19.146616
 20
36.067490
 30
0.0
 10
19.735886
 20
36.067490
 30
0.0
 10
20.210820
 20
35.869600
 30
0.0
 10
20.571418
 20
35.473820
 30
0.0
  0
SPLINE
  5
112
100
AcDbEntity
  8
Layer_1
 62
1
100
AcDbSpline
 70
8
 71
3
 72
8
 73
4
 74
0
 40
0
 40
0
 40
0
 40
0
 40
1
 40
1
 40
1
 40
1
 10
20.571418
 20
35.473820
 30
0.0
 10
20.940811
 20
35.086840
 30
0.0
 10
21.125508
 20
34.493173
 30
0.0
 10
21.125508
 20
33.692820
 30
0.0
  0
LWPOLYLINE
  5
113
100
AcDbEntity
  8
Layer_1
 62
1
100
AcDbPolyline
 90
2
 70
0
 10
17.207302
 20
18.455360
 30
0.0
 10
17.207302
 20
33.692820
 30
0.0
  0
LWPOLYLINE
  5
114
100
AcDbEntity
  8
Layer_1
 62
1
100
AcDbPolyline
 90
1
 70
1
 10
21.125508
 20
33.692820
 30
0.0
  0
SPLINE
  5
115
100
AcDbEntity
  8
Layer_1
 62
1
100
AcDbSpline
 70
8
 71
3
 72
8
 73
4
 74
0
 40
0
 40
0
 40
0
 40
0
 40
1
 40
1
 40
1
 40
1
 10
40.465877
 20
22.505490
 30
0.0
 10
40.474670
 20
21.687543
 30
0.0
 10
40.637379
 20
20.966347
 30
0.0
 10
40.954003
 20
20.341900
 30
0.0
  0
SPLINE
  5
116
100
AcDbEntity
  8
Layer_1
 62
1
100
AcDbSpline
 70
8
 71
3
 72
8
 73
4
 74
0
 40
0
 40
0
 40
0
 40
0
 40
1
 40
1
 40
1
 40
1
 10
40.954003
 20
20.341900
 30
0.0
 10
41.279421
 20
19.717447
 30
0.0
 10
41.705982
 20
19.246910
 30
0.0
 10
42.233687
 20
18.930290
 30
0.0
  0
SPLINE
  5
117
100
AcDbEntity
  8
Layer_1
 62
1
100
AcDbSpline
 70
8
 71
3
 72
8
 73
4
 74
0
 40
0
 40
0
 40
0
 40
0
 40
1
 40
1
 40
1
 40
1
 10
42.233687
 20
18.930290
 30
0.0
 10
42.770186
 20
18.613670
 30
0.0
 10
43.359456
 20
18.455360
 30
0.0
 10
44.001497
 20
18.455360
 30
0.0
  0
SPLINE
  5
118
100
AcDbEntity
  8
Layer_1
 62
1
100
AcDbSpline
 70
8
 71
3
 72
8
 73
4
 74
0
 40
0
 40
0
 40
0
 40
0
 40
1
 40
1
 40
1
 40
1
 10
44.001497
 20
18.455360
 30
0.0
 10
44.432456
 20
18.455360
 30
0.0
 10
44.823836
 20
18.503730
 30
0.0
 10
45.175639
 20
18.600470
 30
0.0
  0
SPLINE
  5
119
100
AcDbEntity
  8
Layer_1
 62
1
100
AcDbSpline
 70
8
 71
3
 72
8
 73
4
 74
0
 40
0
 40
0
 40
0
 40
0
 40
1
 40
1
 40
1
 40
1
 10
45.175639
 20
18.600470
 30
0.0
 10
45.536237
 20
18.706017
 30
0.0
 10
45.883643
 20
18.864330
 30
0.0
 10
46.217856
 20
19.075410
 30
0.0
  0
SPLINE
  5
11a
100
AcDbEntity
  8
Layer_1
 62
1
100
AcDbSpline
 70
8
 71
3
 72
8
 73
4
 74
0
 40
0
 40
0
 40
0
 40
0
 40
1
 40
1
 40
1
 40
1
 10
46.217856
 20
19.075410
 30
0.0
 10
46.552069
 20
19.295283
 30
0.0
 10
46.859896
 20
19.528353
 30
0.0
 10
47.141338
 20
19.774620
 30
0.0
  0
SPLINE
  5
11b
100
AcDbEntity
  8
Layer_1
 62
1
100
AcDbSpline
 70
8
 71
3
 72
8
 73
4
 74
0
 40
0
 40
0
 40
0
 40
0
 40
1
 40
1
 40
1
 40
1
 10
47.141338
 20
19.774620
 30
0.0
 10
47.422781
 20
20.020880
 30
0.0
 10
47.787776
 20
20.355093
 30
0.0
 10
48.236325
 20
20.777260
 30
0.0
  0
SPLINE
  5
11c
100
AcDbEntity
  8
Layer_1
 62
1
100
AcDbSpline
 70
8
 71
3
 72
8
 73
4
 74
0
 40
0
 40
0
 40
0
 40
0
 40
1
 40
1
 40
1
 40
1
 10
48.236325
 20
20.777260
 30
0.0
 10
48.421022
 20
20.935567
 30
0.0
 10
48.684874
 20
21.014720
 30
0.0
 10
49.027882
 20
21.014720
 30
0.0
  0
SPLINE
  5
11d
100
AcDbEntity
  8
Layer_1
 62
1
100
AcDbSpline
 70
8
 71
3
 72
8
 73
4
 74
0
 40
0
 40
0
 40
0
 40
0
 40
1
 40
1
 40
1
 40
1
 10
49.027882
 20
21.014720
 30
0.0
 10
49.397275
 20
21.014720
 30
0.0
 10
49.696308
 20
20.913577
 30
0.0
 10
49.924979
 20
20.711290
 30
0.0
  0
SPLINE
  5
11e
100
AcDbEntity
  8
Layer_1
 62
1
100
AcDbSpline
 70
8
 71
3
 72
8
 73
4
 74
0
 40
0
 40
0
 40
0
 40
0
 40
1
 40
1
 40
1
 40
1
 10
49.924979
 20
20.711290
 30
0.0
 10
50.153651
 20
20.509003
 30
0.0
 10
50.267987
 20
20.223163
 30
0.0
 10
50.267987
 20
19.853770
 30
0.0
  0
SPLINE
  5
11f
100
AcDbEntity
  8
Layer_1
 62
1
100
AcDbSpline
 70
8
 71
3
 72
8
 73
4
 74
0
 40
0
 40
0
 40
0
 40
0
 40
1
 40
1
 40
1
 40
1
 10
50.267987
 20
19.853770
 30
0.0
 10
50.267987
 20
19.528357
 30
0.0
 10
50.140459
 20
19.145773
 30
0.0
 10
49.885402
 20
18.706020
 30
0.0
  0
SPLINE
  5
120
100
AcDbEntity
  8
Layer_1
 62
1
100
AcDbSpline
 70
8
 71
3
 72
8
 73
4
 74
0
 40
0
 40
0
 40
0
 40
0
 40
1
 40
1
 40
1
 40
1
 10
49.885402
 20
18.706020
 30
0.0
 10
49.630345
 20
18.275060
 30
0.0
 10
49.243361
 20
17.857293
 30
0.0
 10
48.724452
 20
17.452720
 30
0.0
  0
SPLINE
  5
121
100
AcDbEntity
  8
Layer_1
 62
1
100
AcDbSpline
 70
8
 71
3
 72
8
 73
4
 74
0
 40
0
 40
0
 40
0
 40
0
 40
1
 40
1
 40
1
 40
1
 10
48.724452
 20
17.452720
 30
0.0
 10
48.214337
 20
17.056940
 30
0.0
 10
47.567899
 20
16.727123
 30
0.0
 10
46.785138
 20
16.463270
 30
0.0
  0
SPLINE
  5
122
100
AcDbEntity
  8
Layer_1
 62
1
100
AcDbSpline
 70
8
 71
3
 72
8
 73
4
 74
0
 40
0
 40
0
 40
0
 40
0
 40
1
 40
1
 40
1
 40
1
 10
46.785138
 20
16.463270
 30
0.0
 10
46.011171
 20
16.199417
 30
0.0
 10
45.118471
 20
16.067490
 30
0.0
 10
44.107038
 20
16.067490
 30
0.0
  0
SPLINE
  5
123
100
AcDbEntity
  8
Layer_1
 62
1
100
AcDbSpline
 70
8
 71
3
 72
8
 73
4
 74
0
 40
0
 40
0
 40
0
 40
0
 40
1
 40
1
 40
1
 40
1
 10
44.107038
 20
16.067490
 30
0.0
 10
41.793933
 20
16.067490
 30
0.0
 10
39.995340
 20
16.727120
 30
0.0
 10
38.711259
 20
18.046380
 30
0.0
  0
SPLINE
  5
124
100
AcDbEntity
  8
Layer_1
 62
1
100
AcDbSpline
 70
8
 71
3
 72
8
 73
4
 74
0
 40
0
 40
0
 40
0
 40
0
 40
1
 40
1
 40
1
 40
1
 10
38.711259
 20
18.046380
 30
0.0
 10
37.427178
 20
19.365647
 30
0.0
 10
36.785138
 20
21.155447
 30
0.0
 10
36.785138
 20
23.415780
 30
0.0
  0
SPLINE
  5
125
100
AcDbEntity
  8
Layer_1
 62
1
100
AcDbSpline
 70
8
 71
3
 72
8
 73
4
 74
0
 40
0
 40
0
 40
0
 40
0
 40
1
 40
1
 40
1
 40
1
 10
36.785138
 20
23.415780
 30
0.0
 10
36.785138
 20
24.479980
 30
0.0
 10
36.943449
 20
25.465027
 30
0.0
 10
37.260072
 20
26.370920
 30
0.0
  0
SPLINE
  5
126
100
AcDbEntity
  8
Layer_1
 62
1
100
AcDbSpline
 70
8
 71
3
 72
8
 73
4
 74
0
 40
0
 40
0
 40
0
 40
0
 40
1
 40
1
 40
1
 40
1
 10
37.260072
 20
26.370920
 30
0.0
 10
37.576695
 20
27.285607
 30
0.0
 10
38.038436
 20
28.068370
 30
0.0
 10
38.645296
 20
28.719210
 30
0.0
  0
SPLINE
  5
127
100
AcDbEntity
  8
Layer_1
 62
1
100
AcDbSpline
 70
8
 71
3
 72
8
 73
4
 74
0
 40
0
 40
0
 40
0
 40
0
 40
1
 40
1
 40
1
 40
1
 10
38.645296
 20
28.719210
 30
0.0
 10
39.252157
 20
29.370043
 30
0.0
 10
39.999738
 20
29.866963
 30
0.0
 10
40.888040
 20
30.209970
 30
0.0
  0
SPLINE
  5
128
100
AcDbEntity
  8
Layer_1
 62
1
100
AcDbSpline
 70
8
 71
3
 72
8
 73
4
 74
0
 40
0
 40
0
 40
0
 40
0
 40
1
 40
1
 40
1
 40
1
 10
40.888040
 20
30.209970
 30
0.0
 10
41.776343
 20
30.561777
 30
0.0
 10
42.761391
 20
30.737680
 30
0.0
 10
43.843185
 20
30.737680
 30
0.0
  0
SPLINE
  5
129
100
AcDbEntity
  8
Layer_1
 62
1
100
AcDbSpline
 70
8
 71
3
 72
8
 73
4
 74
0
 40
0
 40
0
 40
0
 40
0
 40
1
 40
1
 40
1
 40
1
 10
43.843185
 20
30.737680
 30
0.0
 10
45.250397
 20
30.737680
 30
0.0
 10
46.455322
 20
30.438647
 30
0.0
 10
47.457961
 20
29.840580
 30
0.0
  0
SPLINE
  5
12a
100
AcDbEntity
  8
Layer_1
 62
1
100
AcDbSpline
 70
8
 71
3
 72
8
 73
4
 74
0
 40
0
 40
0
 40
0
 40
0
 40
1
 40
1
 40
1
 40
1
 10
47.457961
 20
29.840580
 30
0.0
 10
48.469394
 20
29.251307
 30
0.0
 10
49.225771
 20
28.486137
 30
0.0
 10
49.727090
 20
27.545070
 30
0.0
  0
SPLINE
  5
12b
100
AcDbEntity
  8
Layer_1
 62
1
100
AcDbSpline
 70
8
 71
3
 72
8
 73
4
 74
0
 40
0
 40
0
 40
0
 40
0
 40
1
 40
1
 40
1
 40
1
 10
49.727090
 20
27.545070
 30
0.0
 10
50.228409
 20
26.603997
 30
0.0
 10
50.479069
 20
25.645333
 30
0.0
 10
50.479069
 20
24.669080
 30
0.0
  0
SPLINE
  5
12c
100
AcDbEntity
  8
Layer_1
 62
1
100
AcDbSpline
 70
8
 71
3
 72
8
 73
4
 74
0
 40
0
 40
0
 40
0
 40
0
 40
1
 40
1
 40
1
 40
1
 10
50.479069
 20
24.669080
 30
0.0
 10
50.479069
 20
23.763187
 30
0.0
 10
50.219614
 20
23.173917
 30
0.0
 10
49.700705
 20
22.901270
 30
0.0
  0
SPLINE
  5
12d
100
AcDbEntity
  8
Layer_1
 62
1
100
AcDbSpline
 70
8
 71
3
 72
8
 73
4
 74
0
 40
0
 40
0
 40
0
 40
0
 40
1
 40
1
 40
1
 40
1
 10
49.700705
 20
22.901270
 30
0.0
 10
49.181796
 20
22.637417
 30
0.0
 10
48.451805
 20
22.505490
 30
0.0
 10
47.510732
 20
22.505490
 30
0.0
  0
LWPOLYLINE
  5
12e
100
AcDbEntity
  8
Layer_1
 62
1
100
AcDbPolyline
 90
2
 70
0
 10
47.510732
 20
22.505490
 30
0.0
 10
40.465877
 20
22.505490
 30
0.0
  0
LWPOLYLINE
  5
12f
100
AcDbEntity
  8
Layer_1
 62
1
100
AcDbPolyline
 90
1
 70
1
 10
47.510732
 20
22.505490
 30
0.0
  0
SPLINE
  5
130
100
AcDbEntity
  8
Layer_1
 62
1
100
AcDbSpline
 70
8
 71
3
 72
8
 73
4
 74
0
 40
0
 40
0
 40
0
 40
0
 40
1
 40
1
 40
1
 40
1
 10
46.996220
 20
24.550340
 30
0.0
 10
46.908269
 20
25.781653
 30
0.0
 10
46.574056
 20
26.700740
 30
0.0
 10
45.993581
 20
27.307600
 30
0.0
  0
SPLINE
  5
131
100
AcDbEntity
  8
Layer_1
 62
1
100
AcDbSpline
 70
8
 71
3
 72
8
 73
4
 74
0
 40
0
 40
0
 40
0
 40
0
 40
1
 40
1
 40
1
 40
1
 10
45.993581
 20
27.307600
 30
0.0
 10
45.421901
 20
27.923253
 30
0.0
 10
44.665525
 20
28.231080
 30
0.0
 10
43.724452
 20
28.231080
 30
0.0
  0
SPLINE
  5
132
100
AcDbEntity
  8
Layer_1
 62
1
100
AcDbSpline
 70
8
 71
3
 72
8
 73
4
 74
0
 40
0
 40
0
 40
0
 40
0
 40
1
 40
1
 40
1
 40
1
 10
43.724452
 20
28.231080
 30
0.0
 10
42.827355
 20
28.231080
 30
0.0
 10
42.088568
 20
27.918857
 30
0.0
 10
41.508093
 20
27.294410
 30
0.0
  0
SPLINE
  5
133
100
AcDbEntity
  8
Layer_1
 62
1
100
AcDbSpline
 70
8
 71
3
 72
8
 73
4
 74
0
 40
0
 40
0
 40
0
 40
0
 40
1
 40
1
 40
1
 40
1
 10
41.508093
 20
27.294410
 30
0.0
 10
40.936413
 20
26.678750
 30
0.0
 10
40.589008
 20
25.764060
 30
0.0
 10
40.465877
 20
24.550340
 30
0.0
  0
LWPOLYLINE
  5
134
100
AcDbEntity
  8
Layer_1
 62
1
100
AcDbPolyline
 90
2
 70
0
 10
40.465877
 20
24.550340
 30
0.0
 10
46.996220
 20
24.550340
 30
0.0
  0
LWPOLYLINE
  5
135
100
AcDbEntity
  8
Layer_1
 62
1
100
AcDbPolyline
 90
1
 70
1
 10
40.465877
 20
24.550340
 30
0.0
  0
SPLINE
  5
136
100
AcDbEntity
  8
Layer_1
 62
1
100
AcDbSpline
 70
8
 71
3
 72
8
 73
4
 74
0
 40
0
 40
0
 40
0
 40
0
 40
1
 40
1
 40
1
 40
1
 10
53.500177
 20
33.877520
 30
0.0
 10
53.500177
 20
34.598713
 30
0.0
 10
53.658488
 20
35.144007
 30
0.0
 10
53.975111
 20
35.513400
 30
0.0
  0
SPLINE
  5
137
100
AcDbEntity
  8
Layer_1
 62
1
100
AcDbSpline
 70
8
 71
3
 72
8
 73
4
 74
0
 40
0
 40
0
 40
0
 40
0
 40
1
 40
1
 40
1
 40
1
 10
53.975111
 20
35.513400
 30
0.0
 10
54.300528
 20
35.882793
 30
0.0
 10
54.735884
 20
36.067490
 30
0.0
 10
55.281179
 20
36.067490
 30
0.0
  0
SPLINE
  5
138
100
AcDbEntity
  8
Layer_1
 62
1
100
AcDbSpline
 70
8
 71
3
 72
8
 73
4
 74
0
 40
0
 40
0
 40
0
 40
0
 40
1
 40
1
 40
1
 40
1
 10
55.281179
 20
36.067490
 30
0.0
 10
55.826474
 20
36.067490
 30
0.0
 10
56.266227
 20
35.882793
 30
0.0
 10
56.600440
 20
35.513400
 30
0.0
  0
SPLINE
  5
139
100
AcDbEntity
  8
Layer_1
 62
1
100
AcDbSpline
 70
8
 71
3
 72
8
 73
4
 74
0
 40
0
 40
0
 40
0
 40
0
 40
1
 40
1
 40
1
 40
1
 10
56.600440
 20
35.513400
 30
0.0
 10
56.934653
 20
35.152807
 30
0.0
 10
57.101760
 20
34.607513
 30
0.0
 10
57.101760
 20
33.877520
 30
0.0
  0
LWPOLYLINE
  5
13a
100
AcDbEntity
  8
Layer_1
 62
1
100
AcDbPolyline
 90
2
 70
0
 10
53.500177
 20
18.257470
 30
0.0
 10
53.500177
 20
33.877520
 30
0.0
  0
SPLINE
  5
13b
100
AcDbEntity
  8
Layer_1
 62
1
100
AcDbSpline
 70
8
 71
3
 72
8
 73
4
 74
0
 40
0
 40
0
 40
0
 40
0
 40
1
 40
1
 40
1
 40
1
 10
57.101760
 20
18.257470
 30
0.0
 10
57.101760
 20
17.527477
 30
0.0
 10
56.930256
 20
16.977783
 30
0.0
 10
56.587248
 20
16.608390
 30
0.0
  0
SPLINE
  5
13c
100
AcDbEntity
  8
Layer_1
 62
1
100
AcDbSpline
 70
8
 71
3
 72
8
 73
4
 74
0
 40
0
 40
0
 40
0
 40
0
 40
1
 40
1
 40
1
 40
1
 10
56.587248
 20
16.608390
 30
0.0
 10
56.253035
 20
16.247790
 30
0.0
 10
55.817679
 20
16.067490
 30
0.0
 10
55.281179
 20
16.067490
 30
0.0
  0
SPLINE
  5
13d
100
AcDbEntity
  8
Layer_1
 62
1
100
AcDbSpline
 70
8
 71
3
 72
8
 73
4
 74
0
 40
0
 40
0
 40
0
 40
0
 40
1
 40
1
 40
1
 40
1
 10
55.281179
 20
16.067490
 30
0.0
 10
54.753475
 20
16.067490
 30
0.0
 10
54.322516
 20
16.256587
 30
0.0
 10
53.988303
 20
16.634780
 30
0.0
  0
SPLINE
  5
13e
100
AcDbEntity
  8
Layer_1
 62
1
100
AcDbSpline
 70
8
 71
3
 72
8
 73
4
 74
0
 40
0
 40
0
 40
0
 40
0
 40
1
 40
1
 40
1
 40
1
 10
53.988303
 20
16.634780
 30
0.0
 10
53.662886
 20
17.012967
 30
0.0
 10
53.500177
 20
17.553863
 30
0.0
 10
53.500177
 20
18.257470
 30
0.0
  0
LWPOLYLINE
  5
13f
100
AcDbEntity
  8
Layer_1
 62
1
100
AcDbPolyline
 90
2
 70
0
 10
57.101760
 20
33.877520
 30
0.0
 10
57.101760
 20
18.257470
 30
0.0
  0
LWPOLYLINE
  5
140
100
AcDbEntity
  8
Layer_1
 62
1
100
AcDbPolyline
 90
1
 70
1
 10
53.500177
 20
18.257470
 30
0.0
  0
SPLINE
  5
141
100
AcDbEntity
  8
Layer_1
 62
1
100
AcDbSpline
 70
8
 71
3
 72
8
 73
4
 74
0
 40
0
 40
0
 40
0
 40
0
 40
1
 40
1
 40
1
 40
1
 10
60.835267
 20
33.877520
 30
0.0
 10
60.835267
 20
34.598713
 30
0.0
 10
60.993578
 20
35.144007
 30
0.0
 10
61.310201
 20
35.513400
 30
0.0
  0
SPLINE
  5
142
100
AcDbEntity
  8
Layer_1
 62
1
100
AcDbSpline
 70
8
 71
3
 72
8
 73
4
 74
0
 40
0
 40
0
 40
0
 40
0
 40
1
 40
1
 40
1
 40
1
 10
61.310201
 20
35.513400
 30
0.0
 10
61.635619
 20
35.882793
 30
0.0
 10
62.070975
 20
36.067490
 30
0.0
 10
62.616270
 20
36.067490
 30
0.0
  0
SPLINE
  5
143
100
AcDbEntity
  8
Layer_1
 62
1
100
AcDbSpline
 70
8
 71
3
 72
8
 73
4
 74
0
 40
0
 40
0
 40
0
 40
0
 40
1
 40
1
 40
1
 40
1
 10
62.616270
 20
36.067490
 30
0.0
 10
63.161565
 20
36.067490
 30
0.0
 10
63.601318
 20
35.882793
 30
0.0
 10
63.935531
 20
35.513400
 30
0.0
  0
SPLINE
  5
144
100
AcDbEntity
  8
Layer_1
 62
1
100
AcDbSpline
 70
8
 71
3
 72
8
 73
4
 74
0
 40
0
 40
0
 40
0
 40
0
 40
1
 40
1
 40
1
 40
1
 10
63.935531
 20
35.513400
 30
0.0
 10
64.269744
 20
35.152807
 30
0.0
 10
64.436850
 20
34.607513
 30
0.0
 10
64.436850
 20
33.877520
 30
0.0
  0
LWPOLYLINE
  5
145
100
AcDbEntity
  8
Layer_1
 62
1
100
AcDbPolyline
 90
2
 70
0
 10
60.835267
 20
18.257470
 30
0.0
 10
60.835267
 20
33.877520
 30
0.0
  0
SPLINE
  5
146
100
AcDbEntity
  8
Layer_1
 62
1
100
AcDbSpline
 70
8
 71
3
 72
8
 73
4
 74
0
 40
0
 40
0
 40
0
 40
0
 40
1
 40
1
 40
1
 40
1
 10
64.436850
 20
18.257470
 30
0.0
 10
64.436850
 20
17.527477
 30
0.0
 10
64.265346
 20
16.977783
 30
0.0
 10
63.922339
 20
16.608390
 30
0.0
  0
SPLINE
  5
147
100
AcDbEntity
  8
Layer_1
 62
1
100
AcDbSpline
 70
8
 71
3
 72
8
 73
4
 74
0
 40
0
 40
0
 40
0
 40
0
 40
1
 40
1
 40
1
 40
1
 10
63.922339
 20
16.608390
 30
0.0
 10
63.588126
 20
16.247790
 30
0.0
 10
63.152769
 20
16.067490
 30
0.0
 10
62.616270
 20
16.067490
 30
0.0
  0
SPLINE
  5
148
100
AcDbEntity
  8
Layer_1
 62
1
100
AcDbSpline
 70
8
 71
3
 72
8
 73
4
 74
0
 40
0
 40
0
 40
0
 40
0
 40
1
 40
1
 40
1
 40
1
 10
62.616270
 20
16.067490
 30
0.0
 10
62.088565
 20
16.067490
 30
0.0
 10
61.657607
 20
16.256587
 30
0.0
 10
61.323394
 20
16.634780
 30
0.0
  0
SPLINE
  5
149
100
AcDbEntity
  8
Layer_1
 62
1
100
AcDbSpline
 70
8
 71
3
 72
8
 73
4
 74
0
 40
0
 40
0
 40
0
 40
0
 40
1
 40
1
 40
1
 40
1
 10
61.323394
 20
16.634780
 30
0.0
 10
60.997976
 20
17.012967
 30
0.0
 10
60.835267
 20
17.553863
 30
0.0
 10
60.835267
 20
18.257470
 30
0.0
  0
LWPOLYLINE
  5
14a
100
AcDbEntity
  8
Layer_1
 62
1
100
AcDbPolyline
 90
2
 70
0
 10
64.436850
 20
33.877520
 30
0.0
 10
64.436850
 20
18.257470
 30
0.0
  0
SPLINE
  5
14b
100
AcDbEntity
  8
Layer_1
 62
1
100
AcDbSpline
 70
8
 71
3
 72
8
 73
4
 74
0
 40
0
 40
0
 40
0
 40
0
 40
1
 40
1
 40
1
 40
1
 10
81.653211
 20
23.389390
 30
0.0
 10
81.653211
 20
22.316390
 30
0.0
 10
81.486105
 20
21.326943
 30
0.0
 10
81.151892
 20
20.421050
 30
0.0
  0
SPLINE
  5
14c
100
AcDbEntity
  8
Layer_1
 62
1
100
AcDbSpline
 70
8
 71
3
 72
8
 73
4
 74
0
 40
0
 40
0
 40
0
 40
0
 40
1
 40
1
 40
1
 40
1
 10
81.151892
 20
20.421050
 30
0.0
 10
80.817679
 20
19.515163
 30
0.0
 10
80.333950
 20
18.736800
 30
0.0
 10
79.700704
 20
18.085960
 30
0.0
  0
SPLINE
  5
14d
100
AcDbEntity
  8
Layer_1
 62
1
100
AcDbSpline
 70
8
 71
3
 72
8
 73
4
 74
0
 40
0
 40
0
 40
0
 40
0
 40
1
 40
1
 40
1
 40
1
 10
79.700704
 20
18.085960
 30
0.0
 10
79.067459
 20
17.435127
 30
0.0
 10
78.311082
 20
16.933807
 30
0.0
 10
77.431575
 20
16.582000
 30
0.0
  0
SPLINE
  5
14e
100
AcDbEntity
  8
Layer_1
 62
1
100
AcDbSpline
 70
8
 71
3
 72
8
 73
4
 74
0
 40
0
 40
0
 40
0
 40
0
 40
1
 40
1
 40
1
 40
1
 10
77.431575
 20
16.582000
 30
0.0
 10
76.552068
 20
16.238993
 30
0.0
 10
75.562622
 20
16.067490
 30
0.0
 10
74.463238
 20
16.067490
 30
0.0
  0
SPLINE
  5
14f
100
AcDbEntity
  8
Layer_1
 62
1
100
AcDbSpline
 70
8
 71
3
 72
8
 73
4
 74
0
 40
0
 40
0
 40
0
 40
0
 40
1
 40
1
 40
1
 40
1
 10
74.463238
 20
16.067490
 30
0.0
 10
73.372649
 20
16.067490
 30
0.0
 10
72.391998
 20
16.243393
 30
0.0
 10
71.521285
 20
16.595200
 30
0.0
  0
SPLINE
  5
150
100
AcDbEntity
  8
Layer_1
 62
1
100
AcDbSpline
 70
8
 71
3
 72
8
 73
4
 74
0
 40
0
 40
0
 40
0
 40
0
 40
1
 40
1
 40
1
 40
1
 10
71.521285
 20
16.595200
 30
0.0
 10
70.650573
 20
16.947000
 30
0.0
 10
69.894197
 20
17.448320
 30
0.0
 10
69.252156
 20
18.099160
 30
0.0
  0
SPLINE
  5
151
100
AcDbEntity
  8
Layer_1
 62
1
100
AcDbSpline
 70
8
 71
3
 72
8
 73
4
 74
0
 40
0
 40
0
 40
0
 40
0
 40
1
 40
1
 40
1
 40
1
 10
69.252156
 20
18.099160
 30
0.0
 10
68.618911
 20
18.758787
 30
0.0
 10
68.135182
 20
19.532750
 30
0.0
 10
67.800969
 20
20.421050
 30
0.0
  0
SPLINE
  5
152
100
AcDbEntity
  8
Layer_1
 62
1
100
AcDbSpline
 70
8
 71
3
 72
8
 73
4
 74
0
 40
0
 40
0
 40
0
 40
0
 40
1
 40
1
 40
1
 40
1
 10
67.800969
 20
20.421050
 30
0.0
 10
67.475551
 20
21.318150
 30
0.0
 10
67.312842
 20
22.307597
 30
0.0
 10
67.312842
 20
23.389390
 30
0.0
  0
SPLINE
  5
153
100
AcDbEntity
  8
Layer_1
 62
1
100
AcDbSpline
 70
8
 71
3
 72
8
 73
4
 74
0
 40
0
 40
0
 40
0
 40
0
 40
1
 40
1
 40
1
 40
1
 10
67.312842
 20
23.389390
 30
0.0
 10
67.312842
 20
24.479983
 30
0.0
 10
67.479948
 20
25.478227
 30
0.0
 10
67.814161
 20
26.384120
 30
0.0
  0
SPLINE
  5
154
100
AcDbEntity
  8
Layer_1
 62
1
100
AcDbSpline
 70
8
 71
3
 72
8
 73
4
 74
0
 40
0
 40
0
 40
0
 40
0
 40
1
 40
1
 40
1
 40
1
 10
67.814161
 20
26.384120
 30
0.0
 10
68.148374
 20
27.290007
 30
0.0
 10
68.627706
 20
28.063973
 30
0.0
 10
69.252156
 20
28.706020
 30
0.0
  0
SPLINE
  5
155
100
AcDbEntity
  8
Layer_1
 62
1
100
AcDbSpline
 70
8
 71
3
 72
8
 73
4
 74
0
 40
0
 40
0
 40
0
 40
0
 40
1
 40
1
 40
1
 40
1
 10
69.252156
 20
28.706020
 30
0.0
 10
69.876606
 20
29.348060
 30
0.0
 10
70.632982
 20
29.840583
 30
0.0
 10
71.521285
 20
30.183590
 30
0.0
  0
SPLINE
  5
156
100
AcDbEntity
  8
Layer_1
 62
1
100
AcDbSpline
 70
8
 71
3
 72
8
 73
4
 74
0
 40
0
 40
0
 40
0
 40
0
 40
1
 40
1
 40
1
 40
1
 10
71.521285
 20
30.183590
 30
0.0
 10
72.409588
 20
30.535390
 30
0.0
 10
73.390239
 20
30.711290
 30
0.0
 10
74.463238
 20
30.711290
 30
0.0
  0
SPLINE
  5
157
100
AcDbEntity
  8
Layer_1
 62
1
100
AcDbSpline
 70
8
 71
3
 72
8
 73
4
 74
0
 40
0
 40
0
 40
0
 40
0
 40
1
 40
1
 40
1
 40
1
 10
74.463238
 20
30.711290
 30
0.0
 10
75.553827
 20
30.711290
 30
0.0
 10
76.543272
 20
30.535390
 30
0.0
 10
77.431575
 20
30.183590
 30
0.0
  0
SPLINE
  5
158
100
AcDbEntity
  8
Layer_1
 62
1
100
AcDbSpline
 70
8
 71
3
 72
8
 73
4
 74
0
 40
0
 40
0
 40
0
 40
0
 40
1
 40
1
 40
1
 40
1
 10
77.431575
 20
30.183590
 30
0.0
 10
78.319878
 20
29.831783
 30
0.0
 10
79.080652
 20
29.330463
 30
0.0
 10
79.713897
 20
28.679630
 30
0.0
  0
SPLINE
  5
159
100
AcDbEntity
  8
Layer_1
 62
1
100
AcDbSpline
 70
8
 71
3
 72
8
 73
4
 74
0
 40
0
 40
0
 40
0
 40
0
 40
1
 40
1
 40
1
 40
1
 10
79.713897
 20
28.679630
 30
0.0
 10
80.347142
 20
28.028797
 30
0.0
 10
80.826474
 20
27.254830
 30
0.0
 10
81.151892
 20
26.357730
 30
0.0
  0
SPLINE
  5
15a
100
AcDbEntity
  8
Layer_1
 62
1
100
AcDbSpline
 70
8
 71
3
 72
8
 73
4
 74
0
 40
0
 40
0
 40
0
 40
0
 40
1
 40
1
 40
1
 40
1
 10
81.151892
 20
26.357730
 30
0.0
 10
81.486105
 20
25.460630
 30
0.0
 10
81.653211
 20
24.471183
 30
0.0
 10
81.653211
 20
23.389390
 30
0.0
  0
LWPOLYLINE
  5
15b
100
AcDbEntity
  8
Layer_1
 62
1
100
AcDbPolyline
 90
1
 70
1
 10
60.835267
 20
18.257470
 30
0.0
  0
SPLINE
  5
15c
100
AcDbEntity
  8
Layer_1
 62
1
100
AcDbSpline
 70
8
 71
3
 72
8
 73
4
 74
0
 40
0
 40
0
 40
0
 40
0
 40
1
 40
1
 40
1
 40
1
 10
78.038435
 20
23.389390
 30
0.0
 10
78.038435
 20
24.858170
 30
0.0
 10
77.713017
 20
26.001530
 30
0.0
 10
77.062182
 20
26.819470
 30
0.0
  0
SPLINE
  5
15d
100
AcDbEntity
  8
Layer_1
 62
1
100
AcDbSpline
 70
8
 71
3
 72
8
 73
4
 74
0
 40
0
 40
0
 40
0
 40
0
 40
1
 40
1
 40
1
 40
1
 10
77.062182
 20
26.819470
 30
0.0
 10
76.420141
 20
27.637410
 30
0.0
 10
75.553827
 20
28.046380
 30
0.0
 10
74.463238
 20
28.046380
 30
0.0
  0
SPLINE
  5
15e
100
AcDbEntity
  8
Layer_1
 62
1
100
AcDbSpline
 70
8
 71
3
 72
8
 73
4
 74
0
 40
0
 40
0
 40
0
 40
0
 40
1
 40
1
 40
1
 40
1
 10
74.463238
 20
28.046380
 30
0.0
 10
73.759632
 20
28.046380
 30
0.0
 10
73.139579
 20
27.861683
 30
0.0
 10
72.603079
 20
27.492290
 30
0.0
  0
SPLINE
  5
15f
100
AcDbEntity
  8
Layer_1
 62
1
100
AcDbSpline
 70
8
 71
3
 72
8
 73
4
 74
0
 40
0
 40
0
 40
0
 40
0
 40
1
 40
1
 40
1
 40
1
 10
72.603079
 20
27.492290
 30
0.0
 10
72.066580
 20
27.131697
 30
0.0
 10
71.653211
 20
26.595200
 30
0.0
 10
71.362974
 20
25.882800
 30
0.0
  0
SPLINE
  5
160
100
AcDbEntity
  8
Layer_1
 62
1
100
AcDbSpline
 70
8
 71
3
 72
8
 73
4
 74
0
 40
0
 40
0
 40
0
 40
0
 40
1
 40
1
 40
1
 40
1
 10
71.362974
 20
25.882800
 30
0.0
 10
71.072737
 20
25.170393
 30
0.0
 10
70.927618
 20
24.339257
 30
0.0
 10
70.927618
 20
23.389390
 30
0.0
  0
SPLINE
  5
161
100
AcDbEntity
  8
Layer_1
 62
1
100
AcDbSpline
 70
8
 71
3
 72
8
 73
4
 74
0
 40
0
 40
0
 40
0
 40
0
 40
1
 40
1
 40
1
 40
1
 10
70.927618
 20
23.389390
 30
0.0
 10
70.927618
 20
22.448317
 30
0.0
 10
71.068339
 20
21.625977
 30
0.0
 10
71.349781
 20
20.922370
 30
0.0
  0
SPLINE
  5
162
100
AcDbEntity
  8
Layer_1
 62
1
100
AcDbSpline
 70
8
 71
3
 72
8
 73
4
 74
0
 40
0
 40
0
 40
0
 40
0
 40
1
 40
1
 40
1
 40
1
 10
71.349781
 20
20.922370
 30
0.0
 10
71.640018
 20
20.218770
 30
0.0
 10
72.048989
 20
19.677873
 30
0.0
 10
72.576694
 20
19.299680
 30
0.0
  0
SPLINE
  5
163
100
AcDbEntity
  8
Layer_1
 62
1
100
AcDbSpline
 70
8
 71
3
 72
8
 73
4
 74
0
 40
0
 40
0
 40
0
 40
0
 40
1
 40
1
 40
1
 40
1
 10
72.576694
 20
19.299680
 30
0.0
 10
73.113193
 20
18.930287
 30
0.0
 10
73.742041
 20
18.745590
 30
0.0
 10
74.463238
 20
18.745590
 30
0.0
  0
SPLINE
  5
164
100
AcDbEntity
  8
Layer_1
 62
1
100
AcDbSpline
 70
8
 71
3
 72
8
 73
4
 74
0
 40
0
 40
0
 40
0
 40
0
 40
1
 40
1
 40
1
 40
1
 10
74.463238
 20
18.745590
 30
0.0
 10
75.553827
 20
18.745590
 30
0.0
 10
76.420141
 20
19.154563
 30
0.0
 10
77.062182
 20
19.972510
 30
0.0
  0
SPLINE
  5
165
100
AcDbEntity
  8
Layer_1
 62
1
100
AcDbSpline
 70
8
 71
3
 72
8
 73
4
 74
0
 40
0
 40
0
 40
0
 40
0
 40
1
 40
1
 40
1
 40
1
 10
77.062182
 20
19.972510
 30
0.0
 10
77.713017
 20
20.799243
 30
0.0
 10
78.038435
 20
21.938203
 30
0.0
 10
78.038435
 20
23.389390
 30
0.0
  0
LWPOLYLINE
  5
166
100
AcDbEntity
  8
Layer_1
 62
1
100
AcDbPolyline
 90
1
 70
1
 10
81.653211
 20
23.389390
 30
0.0
  0
LWPOLYLINE
  5
167
100
AcDbEntity
  8
Layer_1
 62
1
100
AcDbPolyline
 90
1
 70
1
 10
78.038435
 20
23.389390
 30
0.0
  0
LWPOLYLINE
  5
168
100
AcDbEntity
  8
Layer_1
 62
1
100
AcDbPolyline
 90
4
 70
1
 10
0.000000
 20
49.866730
 30
0.0
 10
99.733452
 20
49.866730
 30
0.0
 10
99.733452
 20
0.000000
 30
0.0
 10
0.000000
 20
0.000000
 30
0.0
  0
ENDSEC
  0
SECTION
  2
OBJECTS
  0
DICTIONARY
  5
C
330
0
100
AcDbDictionary
  3
ACAD_GROUP
350
D
  3
ACAD_MLINESTYLE
350
17
  0
DICTIONARY
  5
D
330
C
100
AcDbDictionary
  0
DICTIONARY
  5
1A
330
C
100
AcDbDictionary
  0
DICTIONARY
  5
17
330
C
100
AcDbDictionary
  3
STANDARD
350
18
  0
DICTIONARY
  5
19
330
C
100
AcDbDictionary
  0
ENDSEC
  0
EOF
