  0
SECTION
  2
HEADER
  9
$ACADVER
  1
AC1014
  9
$HANDSEED
  5
FFFF
  9
$MEASUREMENT
 70
     1
  0
ENDSEC
  0
SECTION
  2
TABLES
  0
TABLE
  2
VPORT
  5
8
330
0
100
AcDbSymbolTable
 70
     4
  0
VPORT
  5
2E
330
8
100
AcDbSymbolTableRecord
100
AcDbViewportTableRecord
  2
*ACTIVE
 70
     0
 10
0.0
 20
0.0
 11
1.0
 21
1.0
 12
210.0
 22
148.5
 13
0.0
 23
0.0
 14
10.0
 24
10.0
 15
10.0
 25
10.0
 16
0.0
 26
0.0
 36
1.0
 17
0.0
 27
0.0
 37
0.0
 40
341.0
 41
1.24
 42
50.0
 43
0.0
 44
0.0
 50
0.0
 51
0.0
 71
     0
 72
   100
 73
     1
 74
     3
 75
     0
 76
     0
 77
     0
 78
     0
  0
ENDTAB
  0
TABLE
  2
LTYPE
  5
5
330
0
100
AcDbSymbolTable
 70
     1
  0
LTYPE
  5
14
330
5
100
AcDbSymbolTableRecord
100
AcDbLinetypeTableRecord
  2
BYBLOCK
 70
     0
  3

 72
    65
 73
     0
 40
0.0
  0
LTYPE
  5
15
330
5
100
AcDbSymbolTableRecord
100
AcDbLinetypeTableRecord
  2
BYLAYER
 70
     0
  3

 72
    65
 73
     0
 40
0.0
  0
LTYPE
  5
16
330
5
100
AcDbSymbolTableRecord
100
AcDbLinetypeTableRecord
  2
CONTINUOUS
 70
     0
  3
Solid line
 72
    65
 73
     0
 40
0.0
  0
ENDTAB
  0
TABLE
  2
LAYER
  5
2
100
AcDbSymbolTable
 70
2
  0
LAYER
  5
50
100
AcDbSymbolTableRecord
100
AcDbLayerTableRecord
  2
0
 70
0
  6
CONTINUOUS
  0
LAYER
  5
51
100
AcDbSymbolTableRecord
100
AcDbLayerTableRecord
  2
Layer_1
 70
0
  6
CONTINUOUS
  0
ENDTAB
  0
TABLE
  2
STYLE
  5
3
330
0
100
AcDbSymbolTable
 70
     1
  0
STYLE
  5
11
330
3
100
AcDbSymbolTableRecord
100
AcDbTextStyleTableRecord
  2
STANDARD
 70
     0
 40
0.0
 41
1.0
 50
0.0
 71
     0
 42
2.5
  3
txt
  4

  0
ENDTAB
  0
TABLE
  2
VIEW
  5
6
330
0
100
AcDbSymbolTable
 70
     0
  0
ENDTAB
  0
TABLE
  2
UCS
  5
7
330
0
100
AcDbSymbolTable
 70
     0
  0
ENDTAB
  0
TABLE
  2
APPID
  5
9
330
0
100
AcDbSymbolTable
 70
     2
  0
APPID
  5
12
330
9
100
AcDbSymbolTableRecord
100
AcDbRegAppTableRecord
  2
ACAD
 70
     0
  0
ENDTAB
  0
TABLE
  2
DIMSTYLE
  5
A
330
0
100
AcDbSymbolTable
 70
     1
  0
DIMSTYLE
105
27
330
A
100
AcDbSymbolTableRecord
100
AcDbDimStyleTableRecord
  2
ISO-25
 70
     0
  3

  4

  5

  6

  7

 40
1.0
 41
2.5
 42
0.625
 43
3.75
 44
1.25
 45
0.0
 46
0.0
 47
0.0
 48
0.0
140
2.5
141
2.5
142
0.0
143
0.03937007874016
144
1.0
145
0.0
146
1.0
147
0.625
 71
     0
 72
     0
 73
     0
 74
     0
 75
     0
 76
     0
 77
     1
 78
     8
170
     0
171
     3
172
     1
173
     0
174
     0
175
     0
176
     0
177
     0
178
     0
270
     2
271
     2
272
     2
273
     2
274
     3
340
11
275
     0
280
     0
281
     0
282
     0
283
     0
284
     8
285
     0
286
     0
287
     3
288
     0
  0
ENDTAB
  0
TABLE
  2
BLOCK_RECORD
  5
1
330
0
100
AcDbSymbolTable
 70
     1
  0
BLOCK_RECORD
  5
1F
330
1
100
AcDbSymbolTableRecord
100
AcDbBlockTableRecord
  2
*MODEL_SPACE
  0
BLOCK_RECORD
  5
1B
330
1
100
AcDbSymbolTableRecord
100
AcDbBlockTableRecord
  2
*PAPER_SPACE
  0
ENDTAB
  0
ENDSEC
  0
SECTION
  2
BLOCKS
  0
BLOCK
  5
20
330
1F
100
AcDbEntity
  8
0
100
AcDbBlockBegin
  2
*MODEL_SPACE
 70
     0
 10
0.0
 20
0.0
 30
0.0
  3
*MODEL_SPACE
  1

  0
ENDBLK
  5
21
330
1F
100
AcDbEntity
  8
0
100
AcDbBlockEnd
  0
BLOCK
  5
1C
330
1B
100
AcDbEntity
 67
     1
  8
0
100
AcDbBlockBegin
  2
*PAPER_SPACE
  1

  0
ENDBLK
  5
1D
330
1B
100
AcDbEntity
 67
     1
  8
0
100
AcDbBlockEnd
  0
ENDSEC
  0
SECTION
  2
ENTITIES
  0
SPLINE
  5
100
100
AcDbEntity
  8
Layer_1
 62
7
100
AcDbSpline
 70
8
 71
3
 72
8
 73
4
 74
0
 40
0
 40
0
 40
0
 40
0
 40
1
 40
1
 40
1
 40
1
 10
50.492112
 20
-83.138485
 30
0.0
 10
43.061683
 20
-81.794438
 30
0.0
 10
34.636578
 20
-73.706145
 30
0.0
 10
26.245886
 20
-59.861509
 30
0.0
  0
SPLINE
  5
101
100
AcDbEntity
  8
Layer_1
 62
7
100
AcDbSpline
 70
8
 71
3
 72
8
 73
4
 74
0
 40
0
 40
0
 40
0
 40
0
 40
1
 40
1
 40
1
 40
1
 10
26.245886
 20
-59.861509
 30
0.0
 10
20.515423
 20
-50.406321
 30
0.0
 10
15.002179
 20
-45.880809
 30
0.0
 10
7.638790
 20
-44.588098
 30
0.0
  0
SPLINE
  5
102
100
AcDbEntity
  8
Layer_1
 62
7
100
AcDbSpline
 70
8
 71
3
 72
8
 73
4
 74
0
 40
0
 40
0
 40
0
 40
0
 40
1
 40
1
 40
1
 40
1
 10
7.638790
 20
-44.588098
 30
0.0
 10
4.944289
 20
-44.115052
 30
0.0
 10
4.905653
 20
-44.144192
 30
0.0
 10
4.521501
 20
-46.939805
 30
0.0
  0
SPLINE
  5
103
100
AcDbEntity
  8
Layer_1
 62
7
100
AcDbSpline
 70
8
 71
3
 72
8
 73
4
 74
0
 40
0
 40
0
 40
0
 40
0
 40
1
 40
1
 40
1
 40
1
 10
4.521501
 20
-46.939805
 30
0.0
 10
4.307486
 20
-48.496677
 30
0.0
 10
4.194865
 20
-53.989257
 30
0.0
 10
4.270919
 20
-59.145506
 30
0.0
  0
SPLINE
  5
104
100
AcDbEntity
  8
Layer_1
 62
7
100
AcDbSpline
 70
8
 71
3
 72
8
 73
4
 74
0
 40
0
 40
0
 40
0
 40
0
 40
1
 40
1
 40
1
 40
1
 10
4.270919
 20
-59.145506
 30
0.0
 10
4.378635
 20
-66.443102
 30
0.0
 10
4.699801
 20
-69.060643
 30
0.0
 10
5.719961
 20
-70.958013
 30
0.0
  0
SPLINE
  5
105
100
AcDbEntity
  8
Layer_1
 62
7
100
AcDbSpline
 70
8
 71
3
 72
8
 73
4
 74
0
 40
0
 40
0
 40
0
 40
0
 40
1
 40
1
 40
1
 40
1
 10
5.719961
 20
-70.958013
 30
0.0
 10
6.440755
 20
-72.298630
 30
0.0
 10
7.379278
 20
-73.395496
 30
0.0
 10
7.805524
 20
-73.395496
 30
0.0
  0
SPLINE
  5
106
100
AcDbEntity
  8
Layer_1
 62
7
100
AcDbSpline
 70
8
 71
3
 72
8
 73
4
 74
0
 40
0
 40
0
 40
0
 40
0
 40
1
 40
1
 40
1
 40
1
 10
7.805524
 20
-73.395496
 30
0.0
 10
8.231769
 20
-73.395496
 30
0.0
 10
8.406554
 20
-73.676976
 30
0.0
 10
8.193898
 20
-74.021074
 30
0.0
  0
SPLINE
  5
107
100
AcDbEntity
  8
Layer_1
 62
7
100
AcDbSpline
 70
8
 71
3
 72
8
 73
4
 74
0
 40
0
 40
0
 40
0
 40
0
 40
1
 40
1
 40
1
 40
1
 10
8.193898
 20
-74.021074
 30
0.0
 10
7.766717
 20
-74.712274
 30
0.0
 10
-7.868962
 20
-74.534570
 30
0.0
 10
-8.573003
 20
-73.830586
 30
0.0
  0
SPLINE
  5
108
100
AcDbEntity
  8
Layer_1
 62
7
100
AcDbSpline
 70
8
 71
3
 72
8
 73
4
 74
0
 40
0
 40
0
 40
0
 40
0
 40
1
 40
1
 40
1
 40
1
 10
-8.573003
 20
-73.830586
 30
0.0
 10
-8.815648
 20
-73.587940
 30
0.0
 10
-8.225702
 20
-72.550658
 30
0.0
 10
-7.262319
 20
-71.525169
 30
0.0
  0
SPLINE
  5
109
100
AcDbEntity
  8
Layer_1
 62
7
100
AcDbSpline
 70
8
 71
3
 72
8
 73
4
 74
0
 40
0
 40
0
 40
0
 40
0
 40
1
 40
1
 40
1
 40
1
 10
-7.262319
 20
-71.525169
 30
0.0
 10
-5.665393
 20
-69.825317
 30
0.0
 10
-5.471929
 20
-68.782394
 30
0.0
 10
-5.071847
 20
-59.715638
 30
0.0
  0
SPLINE
  5
10a
100
AcDbEntity
  8
Layer_1
 62
7
100
AcDbSpline
 70
8
 71
3
 72
8
 73
4
 74
0
 40
0
 40
0
 40
0
 40
0
 40
1
 40
1
 40
1
 40
1
 10
-5.071847
 20
-59.715638
 30
0.0
 10
-4.830618
 20
-54.245849
 30
0.0
 10
-4.653992
 20
-42.514328
 30
0.0
 10
-4.679645
 20
-33.645600
 30
0.0
  0
SPLINE
  5
10b
100
AcDbEntity
  8
Layer_1
 62
7
100
AcDbSpline
 70
8
 71
3
 72
8
 73
4
 74
0
 40
0
 40
0
 40
0
 40
0
 40
1
 40
1
 40
1
 40
1
 10
-4.679645
 20
-33.645600
 30
0.0
 10
-4.731236
 20
-15.823616
 30
0.0
 10
-4.974307
 20
-14.700529
 30
0.0
 10
-9.628455
 20
-10.784324
 30
0.0
  0
SPLINE
  5
10c
100
AcDbEntity
  8
Layer_1
 62
7
100
AcDbSpline
 70
8
 71
3
 72
8
 73
4
 74
0
 40
0
 40
0
 40
0
 40
0
 40
1
 40
1
 40
1
 40
1
 10
4.407123
 20
-9.077981
 30
0.0
 10
22.525640
 20
-9.445209
 30
0.0
 10
26.033713
 20
-10.096753
 30
0.0
 10
31.598887
 20
-14.128129
 30
0.0
  0
SPLINE
  5
10d
100
AcDbEntity
  8
Layer_1
 62
7
100
AcDbSpline
 70
8
 71
3
 72
8
 73
4
 74
0
 40
0
 40
0
 40
0
 40
0
 40
1
 40
1
 40
1
 40
1
 10
31.598887
 20
-14.128129
 30
0.0
 10
37.925504
 20
-18.711128
 30
0.0
 10
39.868115
 20
-27.416523
 30
0.0
 10
36.211309
 20
-34.797827
 30
0.0
  0
SPLINE
  5
10e
100
AcDbEntity
  8
Layer_1
 62
7
100
AcDbSpline
 70
8
 71
3
 72
8
 73
4
 74
0
 40
0
 40
0
 40
0
 40
0
 40
1
 40
1
 40
1
 40
1
 10
36.211309
 20
-34.797827
 30
0.0
 10
34.613532
 20
-38.022945
 30
0.0
 10
33.708912
 20
-38.845984
 30
0.0
 10
29.443961
 20
-40.954932
 30
0.0
  0
SPLINE
  5
10f
100
AcDbEntity
  8
Layer_1
 62
7
100
AcDbSpline
 70
8
 71
3
 72
8
 73
4
 74
0
 40
0
 40
0
 40
0
 40
0
 40
1
 40
1
 40
1
 40
1
 10
29.443961
 20
-40.954932
 30
0.0
 10
26.736280
 20
-42.293849
 30
0.0
 10
23.614399
 20
-43.464331
 30
0.0
 10
22.506450
 20
-43.556031
 30
0.0
  0
SPLINE
  5
110
100
AcDbEntity
  8
Layer_1
 62
7
100
AcDbSpline
 70
8
 71
3
 72
8
 73
4
 74
0
 40
0
 40
0
 40
0
 40
0
 40
1
 40
1
 40
1
 40
1
 10
22.506450
 20
-43.556031
 30
0.0
 10
19.915158
 20
-43.770614
 30
0.0
 10
19.899483
 20
-45.334261
 30
0.0
 10
22.480938
 20
-45.982460
 30
0.0
  0
SPLINE
  5
111
100
AcDbEntity
  8
Layer_1
 62
7
100
AcDbSpline
 70
8
 71
3
 72
8
 73
4
 74
0
 40
0
 40
0
 40
0
 40
0
 40
1
 40
1
 40
1
 40
1
 10
22.480938
 20
-45.982460
 30
0.0
 10
28.114002
 20
-47.396268
 30
0.0
 10
35.534877
 20
-54.890957
 30
0.0
 10
41.034515
 20
-64.720545
 30
0.0
  0
SPLINE
  5
112
100
AcDbEntity
  8
Layer_1
 62
7
100
AcDbSpline
 70
8
 71
3
 72
8
 73
4
 74
0
 40
0
 40
0
 40
0
 40
0
 40
1
 40
1
 40
1
 40
1
 10
41.034515
 20
-64.720545
 30
0.0
 10
48.147123
 20
-77.433052
 30
0.0
 10
52.238565
 20
-81.613701
 30
0.0
 10
57.615803
 20
-81.663449
 30
0.0
  0
SPLINE
  5
113
100
AcDbEntity
  8
Layer_1
 62
7
100
AcDbSpline
 70
8
 71
3
 72
8
 73
4
 74
0
 40
0
 40
0
 40
0
 40
0
 40
1
 40
1
 40
1
 40
1
 10
57.615803
 20
-81.663449
 30
0.0
 10
59.680786
 20
-81.683291
 30
0.0
 10
60.265176
 20
-81.893339
 30
0.0
 10
59.490808
 20
-82.340135
 30
0.0
  0
SPLINE
  5
114
100
AcDbEntity
  8
Layer_1
 62
7
100
AcDbSpline
 70
8
 71
3
 72
8
 73
4
 74
0
 40
0
 40
0
 40
0
 40
0
 40
1
 40
1
 40
1
 40
1
 10
59.490808
 20
-82.340135
 30
0.0
 10
57.834751
 20
-83.295411
 30
0.0
 10
53.489183
 20
-83.680923
 30
0.0
 10
50.490808
 20
-83.138570
 30
0.0
  0
LWPOLYLINE
  5
115
100
AcDbEntity
  8
Layer_1
 62
7
100
AcDbPolyline
 90
3
 70
0
 10
-9.628455
 20
-10.784324
 30
0.0
 10
-12.052785
 20
-8.744400
 30
0.0
 10
4.407123
 20
-9.077981
 30
0.0
  0
SPLINE
  5
116
100
AcDbEntity
  8
Layer_1
 62
7
100
AcDbSpline
 70
8
 71
3
 72
8
 73
4
 74
0
 40
0
 40
0
 40
0
 40
0
 40
1
 40
1
 40
1
 40
1
 10
17.921921
 20
-39.643370
 30
0.0
 10
22.346802
 20
-38.206970
 30
0.0
 10
24.684903
 20
-36.253729
 30
0.0
 10
26.521952
 20
-32.458847
 30
0.0
  0
SPLINE
  5
117
100
AcDbEntity
  8
Layer_1
 62
7
100
AcDbSpline
 70
8
 71
3
 72
8
 73
4
 74
0
 40
0
 40
0
 40
0
 40
0
 40
1
 40
1
 40
1
 40
1
 10
26.521952
 20
-32.458847
 30
0.0
 10
29.432452
 20
-26.446564
 30
0.0
 10
27.031961
 20
-18.239698
 30
0.0
 10
21.444251
 20
-15.099222
 30
0.0
  0
SPLINE
  5
118
100
AcDbEntity
  8
Layer_1
 62
7
100
AcDbSpline
 70
8
 71
3
 72
8
 73
4
 74
0
 40
0
 40
0
 40
0
 40
0
 40
1
 40
1
 40
1
 40
1
 10
21.444251
 20
-15.099222
 30
0.0
 10
19.087867
 20
-13.774847
 30
0.0
 10
17.171760
 20
-13.417257
 30
0.0
 10
11.956069
 20
-13.328419
 30
0.0
  0
SPLINE
  5
119
100
AcDbEntity
  8
Layer_1
 62
7
100
AcDbSpline
 70
8
 71
3
 72
8
 73
4
 74
0
 40
0
 40
0
 40
0
 40
0
 40
1
 40
1
 40
1
 40
1
 10
11.956069
 20
-13.328419
 30
0.0
 10
8.361511
 20
-13.267191
 30
0.0
 10
5.217662
 20
-13.419978
 30
0.0
 10
4.969716
 20
-13.667896
 30
0.0
  0
SPLINE
  5
11a
100
AcDbEntity
  8
Layer_1
 62
7
100
AcDbSpline
 70
8
 71
3
 72
8
 73
4
 74
0
 40
0
 40
0
 40
0
 40
0
 40
1
 40
1
 40
1
 40
1
 10
4.969716
 20
-13.667896
 30
0.0
 10
4.721684
 20
-13.915928
 30
0.0
 10
4.484736
 20
-19.874098
 30
0.0
 10
4.442982
 20
-26.908413
 30
0.0
  0
SPLINE
  5
11b
100
AcDbEntity
  8
Layer_1
 62
7
100
AcDbSpline
 70
8
 71
3
 72
8
 73
4
 74
0
 40
0
 40
0
 40
0
 40
0
 40
1
 40
1
 40
1
 40
1
 10
4.442982
 20
-26.908413
 30
0.0
 10
4.381753
 20
-37.229414
 30
0.0
 10
4.573375
 20
-39.825836
 30
0.0
 10
5.436015
 20
-40.359770
 30
0.0
  0
SPLINE
  5
11c
100
AcDbEntity
  8
Layer_1
 62
7
100
AcDbSpline
 70
8
 71
3
 72
8
 73
4
 74
0
 40
0
 40
0
 40
0
 40
0
 40
1
 40
1
 40
1
 40
1
 10
5.436015
 20
-40.359770
 30
0.0
 10
6.875363
 20
-41.250784
 30
0.0
 10
14.278806
 20
-40.825984
 30
0.0
 10
17.921921
 20
-39.643370
 30
0.0
  0
LWPOLYLINE
  5
11d
100
AcDbEntity
  8
Layer_1
 62
7
100
AcDbPolyline
 90
2
 70
0
 10
50.490808
 20
-83.138570
 30
0.0
 10
50.492112
 20
-83.138485
 30
0.0
  0
SPLINE
  5
11e
100
AcDbEntity
  8
Layer_1
 62
7
100
AcDbSpline
 70
8
 71
3
 72
8
 73
4
 74
0
 40
0
 40
0
 40
0
 40
0
 40
1
 40
1
 40
1
 40
1
 10
139.367126
 20
-74.882920
 30
0.0
 10
136.892112
 20
-74.109770
 30
0.0
 10
132.596206
 20
-72.699449
 30
0.0
 10
129.820635
 20
-71.748850
 30
0.0
  0
LWPOLYLINE
  5
11f
100
AcDbEntity
  8
Layer_1
 62
7
100
AcDbPolyline
 90
1
 70
1
 10
17.921921
 20
-39.643370
 30
0.0
  0
SPLINE
  5
120
100
AcDbEntity
  8
Layer_1
 62
7
100
AcDbSpline
 70
8
 71
3
 72
8
 73
4
 74
0
 40
0
 40
0
 40
0
 40
0
 40
1
 40
1
 40
1
 40
1
 10
124.757164
 20
-62.333008
 30
0.0
 10
124.740156
 20
-54.306340
 30
0.0
 10
125.493860
 20
-52.692888
 30
0.0
 10
127.033639
 20
-57.458013
 30
0.0
  0
SPLINE
  5
121
100
AcDbEntity
  8
Layer_1
 62
7
100
AcDbSpline
 70
8
 71
3
 72
8
 73
4
 74
0
 40
0
 40
0
 40
0
 40
0
 40
1
 40
1
 40
1
 40
1
 10
127.033639
 20
-57.458013
 30
0.0
 10
127.533472
 20
-59.004879
 30
0.0
 10
129.142332
 20
-61.921559
 30
0.0
 10
130.608865
 20
-63.939543
 30
0.0
  0
SPLINE
  5
122
100
AcDbEntity
  8
Layer_1
 62
7
100
AcDbSpline
 70
8
 71
3
 72
8
 73
4
 74
0
 40
0
 40
0
 40
0
 40
0
 40
1
 40
1
 40
1
 40
1
 10
130.608865
 20
-63.939543
 30
0.0
 10
136.886102
 20
-72.577134
 30
0.0
 10
152.467157
 20
-74.606882
 30
0.0
 10
159.035315
 20
-67.642639
 30
0.0
  0
SPLINE
  5
123
100
AcDbEntity
  8
Layer_1
 62
7
100
AcDbSpline
 70
8
 71
3
 72
8
 73
4
 74
0
 40
0
 40
0
 40
0
 40
0
 40
1
 40
1
 40
1
 40
1
 10
159.035315
 20
-67.642639
 30
0.0
 10
161.130827
 20
-65.420702
 30
0.0
 10
161.491110
 20
-64.492016
 30
0.0
 10
161.491110
 20
-61.312224
 30
0.0
  0
SPLINE
  5
124
100
AcDbEntity
  8
Layer_1
 62
7
100
AcDbSpline
 70
8
 71
3
 72
8
 73
4
 74
0
 40
0
 40
0
 40
0
 40
0
 40
1
 40
1
 40
1
 40
1
 10
161.491110
 20
-61.312224
 30
0.0
 10
161.491110
 20
-53.860649
 30
0.0
 10
158.510395
 20
-50.735197
 30
0.0
 10
144.343715
 20
-43.332123
 30
0.0
  0
SPLINE
  5
125
100
AcDbEntity
  8
Layer_1
 62
7
100
AcDbSpline
 70
8
 71
3
 72
8
 73
4
 74
0
 40
0
 40
0
 40
0
 40
0
 40
1
 40
1
 40
1
 40
1
 10
144.343715
 20
-43.332123
 30
0.0
 10
131.664940
 20
-36.706592
 30
0.0
 10
127.741167
 20
-32.367033
 30
0.0
 10
127.741167
 20
-24.970450
 30
0.0
  0
SPLINE
  5
126
100
AcDbEntity
  8
Layer_1
 62
7
100
AcDbSpline
 70
8
 71
3
 72
8
 73
4
 74
0
 40
0
 40
0
 40
0
 40
0
 40
1
 40
1
 40
1
 40
1
 10
127.741167
 20
-24.970450
 30
0.0
 10
127.741167
 20
-18.005414
 30
0.0
 10
131.858660
 20
-13.216932
 30
0.0
 10
140.203148
 20
-10.477644
 30
0.0
  0
SPLINE
  5
127
100
AcDbEntity
  8
Layer_1
 62
7
100
AcDbSpline
 70
8
 71
3
 72
8
 73
4
 74
0
 40
0
 40
0
 40
0
 40
0
 40
1
 40
1
 40
1
 40
1
 10
140.203148
 20
-10.477644
 30
0.0
 10
145.948691
 20
-8.591528
 30
0.0
 10
150.181271
 20
-8.493080
 30
0.0
 10
157.739117
 20
-10.069795
 30
0.0
  0
SPLINE
  5
128
100
AcDbEntity
  8
Layer_1
 62
7
100
AcDbSpline
 70
8
 71
3
 72
8
 73
4
 74
0
 40
0
 40
0
 40
0
 40
0
 40
1
 40
1
 40
1
 40
1
 10
157.739117
 20
-10.069795
 30
0.0
 10
160.831743
 20
-10.714961
 30
0.0
 10
164.459891
 20
-11.036891
 30
0.0
 10
165.801643
 20
-10.785203
 30
0.0
  0
LWPOLYLINE
  5
129
100
AcDbEntity
  8
Layer_1
 62
7
100
AcDbPolyline
 90
3
 70
0
 10
129.820635
 20
-71.748850
 30
0.0
 10
124.774172
 20
-70.020510
 30
0.0
 10
124.757164
 20
-62.333008
 30
0.0
  0
SPLINE
  5
12a
100
AcDbEntity
  8
Layer_1
 62
7
100
AcDbSpline
 70
8
 71
3
 72
8
 73
4
 74
0
 40
0
 40
0
 40
0
 40
0
 40
1
 40
1
 40
1
 40
1
 10
164.232751
 20
-20.472973
 30
0.0
 10
155.788540
 20
-12.294085
 30
0.0
 10
143.550524
 20
-10.941080
 30
0.0
 10
138.307365
 20
-17.606665
 30
0.0
  0
SPLINE
  5
12b
100
AcDbEntity
  8
Layer_1
 62
7
100
AcDbSpline
 70
8
 71
3
 72
8
 73
4
 74
0
 40
0
 40
0
 40
0
 40
0
 40
1
 40
1
 40
1
 40
1
 10
138.307365
 20
-17.606665
 30
0.0
 10
134.666660
 20
-22.235102
 30
0.0
 10
137.410654
 20
-27.534813
 30
0.0
 10
145.741167
 20
-31.964258
 30
0.0
  0
SPLINE
  5
12c
100
AcDbEntity
  8
Layer_1
 62
7
100
AcDbSpline
 70
8
 71
3
 72
8
 73
4
 74
0
 40
0
 40
0
 40
0
 40
0
 40
1
 40
1
 40
1
 40
1
 10
145.741167
 20
-31.964258
 30
0.0
 10
158.372405
 20
-38.680413
 30
0.0
 10
161.591882
 20
-40.700183
 30
0.0
 10
164.111343
 20
-43.488935
 30
0.0
  0
SPLINE
  5
12d
100
AcDbEntity
  8
Layer_1
 62
7
100
AcDbSpline
 70
8
 71
3
 72
8
 73
4
 74
0
 40
0
 40
0
 40
0
 40
0
 40
1
 40
1
 40
1
 40
1
 10
164.111343
 20
-43.488935
 30
0.0
 10
172.146713
 20
-52.383146
 30
0.0
 10
171.534430
 20
-63.138643
 30
0.0
 10
162.542112
 20
-71.053994
 30
0.0
  0
SPLINE
  5
12e
100
AcDbEntity
  8
Layer_1
 62
7
100
AcDbSpline
 70
8
 71
3
 72
8
 73
4
 74
0
 40
0
 40
0
 40
0
 40
0
 40
1
 40
1
 40
1
 40
1
 10
162.542112
 20
-71.053994
 30
0.0
 10
156.550351
 20
-76.328135
 30
0.0
 10
148.336654
 20
-77.685137
 30
0.0
 10
139.366162
 20
-74.882920
 30
0.0
  0
LWPOLYLINE
  5
12f
100
AcDbEntity
  8
Layer_1
 62
7
100
AcDbPolyline
 90
5
 70
0
 10
165.801643
 20
-10.785203
 30
0.0
 10
168.241167
 20
-10.327521
 30
0.0
 10
168.241167
 20
-17.341455
 30
0.0
 10
168.241167
 20
-24.355389
 30
0.0
 10
164.232751
 20
-20.472973
 30
0.0
  0
SPLINE
  5
130
100
AcDbEntity
  8
Layer_1
 62
7
100
AcDbSpline
 70
8
 71
3
 72
8
 73
4
 74
0
 40
0
 40
0
 40
0
 40
0
 40
1
 40
1
 40
1
 40
1
 10
200.867117
 20
-75.325465
 30
0.0
 10
198.804600
 20
-74.759102
 30
0.0
 10
195.092121
 20
-73.426195
 30
0.0
 10
192.617107
 20
-72.363402
 30
0.0
  0
SPLINE
  5
131
100
AcDbEntity
  8
Layer_1
 62
7
100
AcDbSpline
 70
8
 71
3
 72
8
 73
4
 74
0
 40
0
 40
0
 40
0
 40
0
 40
1
 40
1
 40
1
 40
1
 10
192.617107
 20
-72.363402
 30
0.0
 10
190.142121
 20
-71.300636
 30
0.0
 10
187.695227
 20
-70.423087
 30
0.0
 10
187.179605
 20
-70.413307
 30
0.0
  0
SPLINE
  5
132
100
AcDbEntity
  8
Layer_1
 62
7
100
AcDbSpline
 70
8
 71
3
 72
8
 73
4
 74
0
 40
0
 40
0
 40
0
 40
0
 40
1
 40
1
 40
1
 40
1
 10
187.179605
 20
-70.413307
 30
0.0
 10
186.480326
 20
-70.399134
 30
0.0
 10
186.242102
 20
-68.002157
 30
0.0
 10
186.242102
 20
-60.976233
 30
0.0
  0
SPLINE
  5
133
100
AcDbEntity
  8
Layer_1
 62
7
100
AcDbSpline
 70
8
 71
3
 72
8
 73
4
 74
0
 40
0
 40
0
 40
0
 40
0
 40
1
 40
1
 40
1
 40
1
 10
186.242102
 20
-60.976233
 30
0.0
 10
186.242102
 20
-54.887726
 30
0.0
 10
186.507425
 20
-51.720888
 30
0.0
 10
186.992121
 20
-52.020510
 30
0.0
  0
SPLINE
  5
134
100
AcDbEntity
  8
Layer_1
 62
7
100
AcDbSpline
 70
8
 71
3
 72
8
 73
4
 74
0
 40
0
 40
0
 40
0
 40
0
 40
1
 40
1
 40
1
 40
1
 10
186.992121
 20
-52.020510
 30
0.0
 10
187.404619
 20
-52.275345
 30
0.0
 10
187.745400
 20
-52.885984
 30
0.0
 10
187.749425
 20
-53.377257
 30
0.0
  0
SPLINE
  5
135
100
AcDbEntity
  8
Layer_1
 62
7
100
AcDbSpline
 70
8
 71
3
 72
8
 73
4
 74
0
 40
0
 40
0
 40
0
 40
0
 40
1
 40
1
 40
1
 40
1
 10
187.749425
 20
-53.377257
 30
0.0
 10
187.763598
 20
-55.192280
 30
0.0
 10
191.371507
 20
-61.955943
 30
0.0
 10
193.799239
 20
-64.720970
 30
0.0
  0
SPLINE
  5
136
100
AcDbEntity
  8
Layer_1
 62
7
100
AcDbSpline
 70
8
 71
3
 72
8
 73
4
 74
0
 40
0
 40
0
 40
0
 40
0
 40
1
 40
1
 40
1
 40
1
 10
193.799239
 20
-64.720970
 30
0.0
 10
201.368282
 20
-73.341638
 30
0.0
 10
212.705589
 20
-74.313439
 30
0.0
 10
220.248213
 20
-66.988120
 30
0.0
  0
SPLINE
  5
137
100
AcDbEntity
  8
Layer_1
 62
7
100
AcDbSpline
 70
8
 71
3
 72
8
 73
4
 74
0
 40
0
 40
0
 40
0
 40
0
 40
1
 40
1
 40
1
 40
1
 10
220.248213
 20
-66.988120
 30
0.0
 10
224.973765
 20
-62.398743
 30
0.0
 10
225.228543
 20
-56.263833
 30
0.0
 10
220.883315
 20
-51.696113
 30
0.0
  0
SPLINE
  5
138
100
AcDbEntity
  8
Layer_1
 62
7
100
AcDbSpline
 70
8
 71
3
 72
8
 73
4
 74
0
 40
0
 40
0
 40
0
 40
0
 40
1
 40
1
 40
1
 40
1
 10
220.883315
 20
-51.696113
 30
0.0
 10
219.774402
 20
-50.530394
 30
0.0
 10
213.973356
 20
-47.276220
 30
0.0
 10
207.992112
 20
-44.464592
 30
0.0
  0
SPLINE
  5
139
100
AcDbEntity
  8
Layer_1
 62
7
100
AcDbSpline
 70
8
 71
3
 72
8
 73
4
 74
0
 40
0
 40
0
 40
0
 40
0
 40
1
 40
1
 40
1
 40
1
 10
207.992112
 20
-44.464592
 30
0.0
 10
194.878219
 20
-38.300060
 30
0.0
 10
193.097154
 20
-37.075209
 30
0.0
 10
190.926071
 20
-32.727997
 30
0.0
  0
SPLINE
  5
13a
100
AcDbEntity
  8
Layer_1
 62
7
100
AcDbSpline
 70
8
 71
3
 72
8
 73
4
 74
0
 40
0
 40
0
 40
0
 40
0
 40
1
 40
1
 40
1
 40
1
 10
190.926071
 20
-32.727997
 30
0.0
 10
185.663324
 20
-22.190372
 30
0.0
 10
193.531932
 20
-10.713572
 30
0.0
 10
206.905932
 20
-9.420463
 30
0.0
  0
SPLINE
  5
13b
100
AcDbEntity
  8
Layer_1
 62
7
100
AcDbSpline
 70
8
 71
3
 72
8
 73
4
 74
0
 40
0
 40
0
 40
0
 40
0
 40
1
 40
1
 40
1
 40
1
 10
206.905932
 20
-9.420463
 30
0.0
 10
208.577296
 20
-9.258888
 30
0.0
 10
212.870140
 20
-9.718894
 30
0.0
 10
216.445592
 20
-10.442778
 30
0.0
  0
SPLINE
  5
13c
100
AcDbEntity
  8
Layer_1
 62
7
100
AcDbSpline
 70
8
 71
3
 72
8
 73
4
 74
0
 40
0
 40
0
 40
0
 40
0
 40
1
 40
1
 40
1
 40
1
 10
216.445592
 20
-10.442778
 30
0.0
 10
220.021044
 20
-11.166633
 30
0.0
 10
224.306717
 20
-11.576438
 30
0.0
 10
225.969265
 20
-11.353436
 30
0.0
  0
SPLINE
  5
13d
100
AcDbEntity
  8
Layer_1
 62
7
100
AcDbSpline
 70
8
 71
3
 72
8
 73
4
 74
0
 40
0
 40
0
 40
0
 40
0
 40
1
 40
1
 40
1
 40
1
 10
225.969265
 20
-11.353436
 30
0.0
 10
228.979857
 20
-10.949641
 30
0.0
 10
228.992216
 20
-10.958287
 30
0.0
 10
229.019145
 20
-13.484239
 30
0.0
  0
SPLINE
  5
13e
100
AcDbEntity
  8
Layer_1
 62
7
100
AcDbSpline
 70
8
 71
3
 72
8
 73
4
 74
0
 40
0
 40
0
 40
0
 40
0
 40
1
 40
1
 40
1
 40
1
 10
229.019145
 20
-13.484239
 30
0.0
 10
229.033318
 20
-14.879197
 30
0.0
 10
229.242515
 20
-17.961137
 30
0.0
 10
229.482638
 20
-20.332998
 30
0.0
  0
SPLINE
  5
13f
100
AcDbEntity
  8
Layer_1
 62
7
100
AcDbSpline
 70
8
 71
3
 72
8
 73
4
 74
0
 40
0
 40
0
 40
0
 40
0
 40
1
 40
1
 40
1
 40
1
 10
229.482638
 20
-20.332998
 30
0.0
 10
229.973598
 20
-25.184126
 30
0.0
 10
229.006984
 20
-26.050082
 30
0.0
 10
227.137167
 20
-22.434265
 30
0.0
  0
SPLINE
  5
140
100
AcDbEntity
  8
Layer_1
 62
7
100
AcDbSpline
 70
8
 71
3
 72
8
 73
4
 74
0
 40
0
 40
0
 40
0
 40
0
 40
1
 40
1
 40
1
 40
1
 10
227.137167
 20
-22.434265
 30
0.0
 10
221.693740
 20
-11.907865
 30
0.0
 10
198.242121
 20
-11.267688
 30
0.0
 10
198.242121
 20
-21.645496
 30
0.0
  0
SPLINE
  5
141
100
AcDbEntity
  8
Layer_1
 62
7
100
AcDbSpline
 70
8
 71
3
 72
8
 73
4
 74
0
 40
0
 40
0
 40
0
 40
0
 40
1
 40
1
 40
1
 40
1
 10
198.242121
 20
-21.645496
 30
0.0
 10
198.242121
 20
-25.370589
 30
0.0
 10
200.996150
 20
-27.571805
 30
0.0
 10
212.927315
 20
-33.382885
 30
0.0
  0
SPLINE
  5
142
100
AcDbEntity
  8
Layer_1
 62
7
100
AcDbSpline
 70
8
 71
3
 72
8
 73
4
 74
0
 40
0
 40
0
 40
0
 40
0
 40
1
 40
1
 40
1
 40
1
 10
212.927315
 20
-33.382885
 30
0.0
 10
226.100934
 20
-39.799106
 30
0.0
 10
229.639224
 20
-42.690643
 30
0.0
 10
231.622087
 20
-48.660520
 30
0.0
  0
SPLINE
  5
143
100
AcDbEntity
  8
Layer_1
 62
7
100
AcDbSpline
 70
8
 71
3
 72
8
 73
4
 74
0
 40
0
 40
0
 40
0
 40
0
 40
1
 40
1
 40
1
 40
1
 10
231.622087
 20
-48.660520
 30
0.0
 10
233.259378
 20
-53.589883
 30
0.0
 10
232.821454
 20
-58.727650
 30
0.0
 10
230.272852
 20
-64.490400
 30
0.0
  0
SPLINE
  5
144
100
AcDbEntity
  8
Layer_1
 62
7
100
AcDbSpline
 70
8
 71
3
 72
8
 73
4
 74
0
 40
0
 40
0
 40
0
 40
0
 40
1
 40
1
 40
1
 40
1
 10
230.272852
 20
-64.490400
 30
0.0
 10
228.331205
 20
-68.880699
 30
0.0
 10
225.341447
 20
-71.507934
 30
0.0
 10
218.867117
 20
-74.513112
 30
0.0
  0
SPLINE
  5
145
100
AcDbEntity
  8
Layer_1
 62
7
100
AcDbSpline
 70
8
 71
3
 72
8
 73
4
 74
0
 40
0
 40
0
 40
0
 40
0
 40
1
 40
1
 40
1
 40
1
 10
218.867117
 20
-74.513112
 30
0.0
 10
215.028638
 20
-76.294828
 30
0.0
 10
205.897876
 20
-76.706901
 30
0.0
 10
200.867117
 20
-75.325465
 30
0.0
  0
LWPOLYLINE
  5
146
100
AcDbEntity
  8
Layer_1
 62
7
100
AcDbPolyline
 90
2
 70
0
 10
139.366162
 20
-74.882920
 30
0.0
 10
139.367126
 20
-74.882920
 30
0.0
  0
SPLINE
  5
147
100
AcDbEntity
  8
Layer_1
 62
7
100
AcDbSpline
 70
8
 71
3
 72
8
 73
4
 74
0
 40
0
 40
0
 40
0
 40
0
 40
1
 40
1
 40
1
 40
1
 10
60.242102
 20
-75.101528
 30
0.0
 10
60.242102
 20
-74.901118
 30
0.0
 10
61.053180
 20
-73.773213
 30
0.0
 10
62.044483
 20
-72.595106
 30
0.0
  0
SPLINE
  5
148
100
AcDbEntity
  8
Layer_1
 62
7
100
AcDbSpline
 70
8
 71
3
 72
8
 73
4
 74
0
 40
0
 40
0
 40
0
 40
0
 40
1
 40
1
 40
1
 40
1
 10
62.044483
 20
-72.595106
 30
0.0
 10
65.006150
 20
-69.075411
 30
0.0
 10
65.622657
 20
-62.634359
 30
0.0
 10
65.356115
 20
-37.997745
 30
0.0
  0
LWPOLYLINE
  5
149
100
AcDbEntity
  8
Layer_1
 62
7
100
AcDbPolyline
 90
1
 70
1
 10
200.867117
 20
-75.325465
 30
0.0
  0
SPLINE
  5
14a
100
AcDbEntity
  8
Layer_1
 62
7
100
AcDbSpline
 70
8
 71
3
 72
8
 73
4
 74
0
 40
0
 40
0
 40
0
 40
0
 40
1
 40
1
 40
1
 40
1
 10
63.242150
 20
-13.156469
 30
0.0
 10
62.210877
 20
-11.643619
 30
0.0
 10
61.114011
 20
-10.403518
 30
0.0
 10
60.804638
 20
-10.400712
 30
0.0
  0
SPLINE
  5
14b
100
AcDbEntity
  8
Layer_1
 62
7
100
AcDbSpline
 70
8
 71
3
 72
8
 73
4
 74
0
 40
0
 40
0
 40
0
 40
0
 40
1
 40
1
 40
1
 40
1
 10
60.804638
 20
-10.400712
 30
0.0
 10
60.495265
 20
-10.397877
 30
0.0
 10
60.242131
 20
-10.058088
 30
0.0
 10
60.242131
 20
-9.645591
 30
0.0
  0
SPLINE
  5
14c
100
AcDbEntity
  8
Layer_1
 62
7
100
AcDbSpline
 70
8
 71
3
 72
8
 73
4
 74
0
 40
0
 40
0
 40
0
 40
0
 40
1
 40
1
 40
1
 40
1
 10
60.242131
 20
-9.645591
 30
0.0
 10
60.242131
 20
-9.161461
 30
0.0
 10
68.617148
 20
-8.895600
 30
0.0
 10
83.867145
 20
-8.895600
 30
0.0
  0
LWPOLYLINE
  5
14d
100
AcDbEntity
  8
Layer_1
 62
7
100
AcDbPolyline
 90
3
 70
0
 10
65.356115
 20
-37.997745
 30
0.0
 10
65.117154
 20
-15.907124
 30
0.0
 10
63.242150
 20
-13.156469
 30
0.0
  0
SPLINE
  5
14e
100
AcDbEntity
  8
Layer_1
 62
7
100
AcDbSpline
 70
8
 71
3
 72
8
 73
4
 74
0
 40
0
 40
0
 40
0
 40
0
 40
1
 40
1
 40
1
 40
1
 10
107.492131
 20
-14.145591
 30
0.0
 10
107.492131
 20
-19.730693
 30
0.0
 10
106.902666
 20
-20.521928
 30
0.0
 10
104.955576
 20
-17.550283
 30
0.0
  0
SPLINE
  5
14f
100
AcDbEntity
  8
Layer_1
 62
7
100
AcDbSpline
 70
8
 71
3
 72
8
 73
4
 74
0
 40
0
 40
0
 40
0
 40
0
 40
1
 40
1
 40
1
 40
1
 10
104.955576
 20
-17.550283
 30
0.0
 10
103.007268
 20
-14.576825
 30
0.0
 10
97.518572
 20
-13.395600
 30
0.0
 10
85.650279
 20
-13.395600
 30
0.0
  0
SPLINE
  5
150
100
AcDbEntity
  8
Layer_1
 62
7
100
AcDbSpline
 70
8
 71
3
 72
8
 73
4
 74
0
 40
0
 40
0
 40
0
 40
0
 40
1
 40
1
 40
1
 40
1
 10
85.650279
 20
-13.395600
 30
0.0
 10
78.977665
 20
-13.395600
 30
0.0
 10
75.151148
 20
-13.686066
 30
0.0
 10
74.822698
 20
-14.217477
 30
0.0
  0
SPLINE
  5
151
100
AcDbEntity
  8
Layer_1
 62
7
100
AcDbSpline
 70
8
 71
3
 72
8
 73
4
 74
0
 40
0
 40
0
 40
0
 40
0
 40
1
 40
1
 40
1
 40
1
 10
74.822698
 20
-14.217477
 30
0.0
 10
74.168320
 20
-15.276331
 30
0.0
 10
74.016496
 20
-34.919972
 30
0.0
 10
74.657721
 20
-35.561197
 30
0.0
  0
SPLINE
  5
152
100
AcDbEntity
  8
Layer_1
 62
7
100
AcDbSpline
 70
8
 71
3
 72
8
 73
4
 74
0
 40
0
 40
0
 40
0
 40
0
 40
1
 40
1
 40
1
 40
1
 10
74.657721
 20
-35.561197
 30
0.0
 10
74.924745
 20
-35.828220
 30
0.0
 10
79.299624
 20
-36.138728
 30
0.0
 10
84.380017
 20
-36.251603
 30
0.0
  0
SPLINE
  5
153
100
AcDbEntity
  8
Layer_1
 62
7
100
AcDbSpline
 70
8
 71
3
 72
8
 73
4
 74
0
 40
0
 40
0
 40
0
 40
0
 40
1
 40
1
 40
1
 40
1
 10
84.380017
 20
-36.251603
 30
0.0
 10
92.191592
 20
-36.425083
 30
0.0
 10
94.046556
 20
-36.240265
 30
0.0
 10
96.399737
 20
-35.051187
 30
0.0
  0
SPLINE
  5
154
100
AcDbEntity
  8
Layer_1
 62
7
100
AcDbSpline
 70
8
 71
3
 72
8
 73
4
 74
0
 40
0
 40
0
 40
0
 40
0
 40
1
 40
1
 40
1
 40
1
 10
96.399737
 20
-35.051187
 30
0.0
 10
97.930162
 20
-34.278094
 30
0.0
 10
99.364550
 20
-33.645600
 30
0.0
 10
99.587239
 20
-33.645600
 30
0.0
  0
SPLINE
  5
155
100
AcDbEntity
  8
Layer_1
 62
7
100
AcDbSpline
 70
8
 71
3
 72
8
 73
4
 74
0
 40
0
 40
0
 40
0
 40
0
 40
1
 40
1
 40
1
 40
1
 10
99.587239
 20
-33.645600
 30
0.0
 10
99.810043
 20
-33.645600
 30
0.0
 10
99.992112
 20
-36.008079
 30
0.0
 10
99.992112
 20
-38.895591
 30
0.0
  0
SPLINE
  5
156
100
AcDbEntity
  8
Layer_1
 62
7
100
AcDbSpline
 70
8
 71
3
 72
8
 73
4
 74
0
 40
0
 40
0
 40
0
 40
0
 40
1
 40
1
 40
1
 40
1
 10
99.992112
 20
-38.895591
 30
0.0
 10
99.992112
 20
-41.783074
 30
0.0
 10
99.907639
 20
-44.144164
 30
0.0
 10
99.804742
 20
-44.142435
 30
0.0
  0
SPLINE
  5
157
100
AcDbEntity
  8
Layer_1
 62
7
100
AcDbSpline
 70
8
 71
3
 72
8
 73
4
 74
0
 40
0
 40
0
 40
0
 40
0
 40
1
 40
1
 40
1
 40
1
 10
99.804742
 20
-44.142435
 30
0.0
 10
99.701561
 20
-44.140932
 30
0.0
 10
97.956921
 20
-43.296973
 30
0.0
 10
95.927655
 20
-42.267458
 30
0.0
  0
SPLINE
  5
158
100
AcDbEntity
  8
Layer_1
 62
7
100
AcDbSpline
 70
8
 71
3
 72
8
 73
4
 74
0
 40
0
 40
0
 40
0
 40
0
 40
1
 40
1
 40
1
 40
1
 10
95.927655
 20
-42.267458
 30
0.0
 10
92.611431
 20
-40.585039
 30
0.0
 10
91.340065
 20
-40.395600
 30
0.0
 10
83.365157
 20
-40.395600
 30
0.0
  0
LWPOLYLINE
  5
159
100
AcDbEntity
  8
Layer_1
 62
7
100
AcDbPolyline
 90
3
 70
0
 10
83.867145
 20
-8.895600
 30
0.0
 10
107.492131
 20
-8.895600
 30
0.0
 10
107.492131
 20
-14.145591
 30
0.0
  0
SPLINE
  5
15a
100
AcDbEntity
  8
Layer_1
 62
7
100
AcDbSpline
 70
8
 71
3
 72
8
 73
4
 74
0
 40
0
 40
0
 40
0
 40
0
 40
1
 40
1
 40
1
 40
1
 10
86.141353
 20
-71.145581
 30
0.0
 10
98.488928
 20
-71.145581
 30
0.0
 10
101.320483
 20
-70.567370
 30
0.0
 10
104.489022
 20
-67.398831
 30
0.0
  0
SPLINE
  5
15b
100
AcDbEntity
  8
Layer_1
 62
7
100
AcDbSpline
 70
8
 71
3
 72
8
 73
4
 74
0
 40
0
 40
0
 40
0
 40
0
 40
1
 40
1
 40
1
 40
1
 10
104.489022
 20
-67.398831
 30
0.0
 10
105.384543
 20
-66.503310
 30
0.0
 10
106.249054
 20
-65.902394
 30
0.0
 10
106.410118
 20
-66.063458
 30
0.0
  0
SPLINE
  5
15c
100
AcDbEntity
  8
Layer_1
 62
7
100
AcDbSpline
 70
8
 71
3
 72
8
 73
4
 74
0
 40
0
 40
0
 40
0
 40
0
 40
1
 40
1
 40
1
 40
1
 10
106.410118
 20
-66.063458
 30
0.0
 10
106.571126
 20
-66.224466
 30
0.0
 10
106.796225
 20
-68.362044
 30
0.0
 10
106.910121
 20
-70.813474
 30
0.0
  0
LWPOLYLINE
  5
15d
100
AcDbEntity
  8
Layer_1
 62
7
100
AcDbPolyline
 90
5
 70
0
 10
83.365157
 20
-40.395600
 30
0.0
 10
74.492263
 20
-40.395600
 30
0.0
 10
74.492263
 20
-55.770576
 30
0.0
 10
74.492263
 20
-71.145581
 30
0.0
 10
86.141353
 20
-71.145581
 30
0.0
  0
SPLINE
  5
15e
100
AcDbEntity
  8
Layer_1
 62
7
100
AcDbSpline
 70
8
 71
3
 72
8
 73
4
 74
0
 40
0
 40
0
 40
0
 40
0
 40
1
 40
1
 40
1
 40
1
 10
83.679831
 20
-75.368381
 30
0.0
 10
70.789224
 20
-75.422239
 30
0.0
 10
60.242329
 20
-75.302050
 30
0.0
 10
60.242329
 20
-75.101641
 30
0.0
  0
LWPOLYLINE
  5
15f
100
AcDbEntity
  8
Layer_1
 62
7
100
AcDbPolyline
 90
3
 70
0
 10
106.910121
 20
-70.813474
 30
0.0
 10
107.117334
 20
-75.270586
 30
0.0
 10
83.679831
 20
-75.368381
 30
0.0
  0
SPLINE
  5
160
100
AcDbEntity
  8
Layer_1
 62
7
100
AcDbSpline
 70
8
 71
3
 72
8
 73
4
 74
0
 40
0
 40
0
 40
0
 40
0
 40
1
 40
1
 40
1
 40
1
 10
-210.507338
 20
-73.208098
 30
0.0
 10
-210.507653
 20
-72.898724
 30
0.0
 10
-209.850721
 20
-71.988406
 30
0.0
 10
-209.047473
 20
-71.185153
 30
0.0
  0
SPLINE
  5
161
100
AcDbEntity
  8
Layer_1
 62
7
100
AcDbSpline
 70
8
 71
3
 72
8
 73
4
 74
0
 40
0
 40
0
 40
0
 40
0
 40
1
 40
1
 40
1
 40
1
 10
-209.047473
 20
-71.185153
 30
0.0
 10
-206.518428
 20
-68.656110
 30
0.0
 10
-206.103325
 20
-64.639984
 30
0.0
 10
-205.865073
 20
-40.395600
 30
0.0
  0
SPLINE
  5
162
100
AcDbEntity
  8
Layer_1
 62
7
100
AcDbSpline
 70
8
 71
3
 72
8
 73
4
 74
0
 40
0
 40
0
 40
0
 40
0
 40
1
 40
1
 40
1
 40
1
 10
-205.865073
 20
-40.395600
 30
0.0
 10
-205.636317
 20
-17.132542
 30
0.0
 10
-205.658711
 20
-16.722369
 30
0.0
 10
-207.315136
 20
-13.623307
 30
0.0
  0
SPLINE
  5
163
100
AcDbEntity
  8
Layer_1
 62
7
100
AcDbSpline
 70
8
 71
3
 72
8
 73
4
 74
0
 40
0
 40
0
 40
0
 40
0
 40
1
 40
1
 40
1
 40
1
 10
-207.315136
 20
-13.623307
 30
0.0
 10
-208.240359
 20
-11.892302
 30
0.0
 10
-209.587555
 20
-10.145735
 30
0.0
 10
-210.308890
 20
-9.742054
 30
0.0
  0
SPLINE
  5
164
100
AcDbEntity
  8
Layer_1
 62
7
100
AcDbSpline
 70
8
 71
3
 72
8
 73
4
 74
0
 40
0
 40
0
 40
0
 40
0
 40
1
 40
1
 40
1
 40
1
 10
-210.308890
 20
-9.742054
 30
0.0
 10
-211.030217
 20
-9.338372
 30
0.0
 10
-211.454484
 20
-8.898406
 30
0.0
 10
-211.251662
 20
-8.764328
 30
0.0
  0
SPLINE
  5
165
100
AcDbEntity
  8
Layer_1
 62
7
100
AcDbSpline
 70
8
 71
3
 72
8
 73
4
 74
0
 40
0
 40
0
 40
0
 40
0
 40
1
 40
1
 40
1
 40
1
 10
-211.251662
 20
-8.764328
 30
0.0
 10
-211.048702
 20
-8.630249
 30
0.0
 10
-200.167302
 20
-8.618627
 30
0.0
 10
-187.070417
 20
-8.738816
 30
0.0
  0
LWPOLYLINE
  5
166
100
AcDbEntity
  8
Layer_1
 62
7
100
AcDbPolyline
 90
2
 70
0
 10
60.242329
 20
-75.101641
 30
0.0
 10
60.242102
 20
-75.101528
 30
0.0
  0
SPLINE
  5
167
100
AcDbEntity
  8
Layer_1
 62
7
100
AcDbSpline
 70
8
 71
3
 72
8
 73
4
 74
0
 40
0
 40
0
 40
0
 40
0
 40
1
 40
1
 40
1
 40
1
 10
-166.097611
 20
-17.879783
 30
0.0
 10
-169.985384
 20
-13.992009
 30
0.0
 10
-173.585186
 20
-13.132913
 30
0.0
 10
-185.639970
 20
-13.216025
 30
0.0
  0
SPLINE
  5
168
100
AcDbEntity
  8
Layer_1
 62
7
100
AcDbSpline
 70
8
 71
3
 72
8
 73
4
 74
0
 40
0
 40
0
 40
0
 40
0
 40
1
 40
1
 40
1
 40
1
 10
-185.639970
 20
-13.216025
 30
0.0
 10
-191.143831
 20
-13.254009
 30
0.0
 10
-195.812918
 20
-13.451017
 30
0.0
 10
-196.015652
 20
-13.653694
 30
0.0
  0
SPLINE
  5
169
100
AcDbEntity
  8
Layer_1
 62
7
100
AcDbSpline
 70
8
 71
3
 72
8
 73
4
 74
0
 40
0
 40
0
 40
0
 40
0
 40
1
 40
1
 40
1
 40
1
 10
-196.015652
 20
-13.653694
 30
0.0
 10
-196.838549
 20
-14.476592
 30
0.0
 10
-197.123374
 20
-30.355398
 30
0.0
 10
-196.350707
 20
-32.333443
 30
0.0
  0
LWPOLYLINE
  5
16a
100
AcDbEntity
  8
Layer_1
 62
7
100
AcDbPolyline
 90
5
 70
0
 10
-187.070417
 20
-8.738816
 30
0.0
 10
-163.257919
 20
-8.956517
 30
0.0
 10
-163.257919
 20
-14.837981
 30
0.0
 10
-163.257919
 20
-20.719474
 30
0.0
 10
-166.097611
 20
-17.879783
 30
0.0
  0
SPLINE
  5
16b
100
AcDbEntity
  8
Layer_1
 62
7
100
AcDbSpline
 70
8
 71
3
 72
8
 73
4
 74
0
 40
0
 40
0
 40
0
 40
0
 40
1
 40
1
 40
1
 40
1
 10
-187.388408
 20
-34.395931
 30
0.0
 10
-179.156115
 20
-34.395931
 30
0.0
 10
-175.224433
 20
-33.627458
 30
0.0
 10
-172.820426
 20
-31.548501
 30
0.0
  0
SPLINE
  5
16c
100
AcDbEntity
  8
Layer_1
 62
7
100
AcDbSpline
 70
8
 71
3
 72
8
 73
4
 74
0
 40
0
 40
0
 40
0
 40
0
 40
1
 40
1
 40
1
 40
1
 10
-172.820426
 20
-31.548501
 30
0.0
 10
-171.582565
 20
-30.478025
 30
0.0
 10
-171.507929
 20
-30.828614
 30
0.0
 10
-171.507929
 20
-37.712239
 30
0.0
  0
LWPOLYLINE
  5
16d
100
AcDbEntity
  8
Layer_1
 62
7
100
AcDbPolyline
 90
3
 70
0
 10
-196.350707
 20
-32.333443
 30
0.0
 10
-195.545044
 20
-34.395931
 30
0.0
 10
-187.388408
 20
-34.395931
 30
0.0
  0
SPLINE
  5
16e
100
AcDbEntity
  8
Layer_1
 62
7
100
AcDbSpline
 70
8
 71
3
 72
8
 73
4
 74
0
 40
0
 40
0
 40
0
 40
0
 40
1
 40
1
 40
1
 40
1
 10
-173.407453
 20
-42.753543
 30
0.0
 10
-176.239860
 20
-39.387458
 30
0.0
 10
-179.423904
 20
-38.637468
 30
0.0
 10
-188.279450
 20
-39.250545
 30
0.0
  0
SPLINE
  5
16f
100
AcDbEntity
  8
Layer_1
 62
7
100
AcDbSpline
 70
8
 71
3
 72
8
 73
4
 74
0
 40
0
 40
0
 40
0
 40
0
 40
1
 40
1
 40
1
 40
1
 10
-188.279450
 20
-39.250545
 30
0.0
 10
-192.461346
 20
-39.540047
 30
0.0
 10
-195.989063
 20
-39.881735
 30
0.0
 10
-196.118833
 20
-40.009833
 30
0.0
  0
SPLINE
  5
170
100
AcDbEntity
  8
Layer_1
 62
7
100
AcDbSpline
 70
8
 71
3
 72
8
 73
4
 74
0
 40
0
 40
0
 40
0
 40
0
 40
1
 40
1
 40
1
 40
1
 10
-196.118833
 20
-40.009833
 30
0.0
 10
-196.524641
 20
-40.410510
 30
0.0
 10
-196.253195
 20
-68.400624
 30
0.0
 10
-195.839620
 20
-68.814312
 30
0.0
  0
SPLINE
  5
171
100
AcDbEntity
  8
Layer_1
 62
7
100
AcDbSpline
 70
8
 71
3
 72
8
 73
4
 74
0
 40
0
 40
0
 40
0
 40
0
 40
1
 40
1
 40
1
 40
1
 10
-195.839620
 20
-68.814312
 30
0.0
 10
-195.623904
 20
-69.030028
 30
0.0
 10
-189.976496
 20
-69.221197
 30
0.0
 10
-183.290105
 20
-69.238857
 30
0.0
  0
SPLINE
  5
172
100
AcDbEntity
  8
Layer_1
 62
7
100
AcDbSpline
 70
8
 71
3
 72
8
 73
4
 74
0
 40
0
 40
0
 40
0
 40
0
 40
1
 40
1
 40
1
 40
1
 10
-183.290105
 20
-69.238857
 30
0.0
 10
-171.817047
 20
-69.269187
 30
0.0
 10
-170.974052
 20
-69.171959
 30
0.0
 10
-168.308493
 20
-67.514882
 30
0.0
  0
SPLINE
  5
173
100
AcDbEntity
  8
Layer_1
 62
7
100
AcDbSpline
 70
8
 71
3
 72
8
 73
4
 74
0
 40
0
 40
0
 40
0
 40
0
 40
1
 40
1
 40
1
 40
1
 10
-168.308493
 20
-67.514882
 30
0.0
 10
-166.755078
 20
-66.549033
 30
0.0
 10
-164.996719
 20
-64.861540
 30
0.0
 10
-164.401047
 20
-63.764872
 30
0.0
  0
SPLINE
  5
174
100
AcDbEntity
  8
Layer_1
 62
7
100
AcDbSpline
 70
8
 71
3
 72
8
 73
4
 74
0
 40
0
 40
0
 40
0
 40
0
 40
1
 40
1
 40
1
 40
1
 10
-164.401047
 20
-63.764872
 30
0.0
 10
-163.371844
 20
-61.869969
 30
0.0
 10
-163.316568
 20
-62.040954
 30
0.0
 10
-163.288023
 20
-67.208457
 30
0.0
  0
SPLINE
  5
175
100
AcDbEntity
  8
Layer_1
 62
7
100
AcDbSpline
 70
8
 71
3
 72
8
 73
4
 74
0
 40
0
 40
0
 40
0
 40
0
 40
1
 40
1
 40
1
 40
1
 10
-163.288023
 20
-67.208457
 30
0.0
 10
-163.271015
 20
-70.199065
 30
0.0
 10
-163.342449
 20
-72.899065
 30
0.0
 10
-163.445630
 20
-73.208438
 30
0.0
  0
SPLINE
  5
176
100
AcDbEntity
  8
Layer_1
 62
7
100
AcDbSpline
 70
8
 71
3
 72
8
 73
4
 74
0
 40
0
 40
0
 40
0
 40
0
 40
1
 40
1
 40
1
 40
1
 10
-163.445630
 20
-73.208438
 30
0.0
 10
-163.548811
 20
-73.517811
 30
0.0
 10
-174.179752
 20
-73.770945
 30
0.0
 10
-187.070077
 20
-73.770945
 30
0.0
  0
SPLINE
  5
177
100
AcDbEntity
  8
Layer_1
 62
7
100
AcDbSpline
 70
8
 71
3
 72
8
 73
4
 74
0
 40
0
 40
0
 40
0
 40
0
 40
1
 40
1
 40
1
 40
1
 10
-187.070077
 20
-73.770945
 30
0.0
 10
-199.960373
 20
-73.770945
 30
0.0
 10
-210.507256
 20
-73.517811
 30
0.0
 10
-210.507542
 20
-73.208438
 30
0.0
  0
LWPOLYLINE
  5
178
100
AcDbEntity
  8
Layer_1
 62
7
100
AcDbPolyline
 90
3
 70
0
 10
-171.507929
 20
-37.712239
 30
0.0
 10
-171.507929
 20
-45.011027
 30
0.0
 10
-173.407453
 20
-42.753543
 30
0.0
  0
SPLINE
  5
179
100
AcDbEntity
  8
Layer_1
 62
7
100
AcDbSpline
 70
8
 71
3
 72
8
 73
4
 74
0
 40
0
 40
0
 40
0
 40
0
 40
1
 40
1
 40
1
 40
1
 10
-146.770798
 20
-72.047877
 30
0.0
 10
-140.579734
 20
-67.242926
 30
0.0
 10
-137.129148
 20
-63.430016
 30
0.0
 10
-130.403299
 20
-53.961676
 30
0.0
  0
SPLINE
  5
17a
100
AcDbEntity
  8
Layer_1
 62
7
100
AcDbSpline
 70
8
 71
3
 72
8
 73
4
 74
0
 40
0
 40
0
 40
0
 40
0
 40
1
 40
1
 40
1
 40
1
 10
-130.403299
 20
-53.961676
 30
0.0
 10
-126.473346
 20
-48.429298
 30
0.0
 10
-123.264102
 20
-43.535537
 30
0.0
 10
-123.271671
 20
-43.086699
 30
0.0
  0
SPLINE
  5
17b
100
AcDbEntity
  8
Layer_1
 62
7
100
AcDbSpline
 70
8
 71
3
 72
8
 73
4
 74
0
 40
0
 40
0
 40
0
 40
0
 40
1
 40
1
 40
1
 40
1
 10
-123.271671
 20
-43.086699
 30
0.0
 10
-123.291513
 20
-41.860772
 30
0.0
 10
-131.374023
 20
-28.146586
 30
0.0
 10
-136.379866
 20
-20.842781
 30
0.0
  0
SPLINE
  5
17c
100
AcDbEntity
  8
Layer_1
 62
7
100
AcDbSpline
 70
8
 71
3
 72
8
 73
4
 74
0
 40
0
 40
0
 40
0
 40
0
 40
1
 40
1
 40
1
 40
1
 10
-136.379866
 20
-20.842781
 30
0.0
 10
-139.000439
 20
-17.019241
 30
0.0
 10
-142.223148
 20
-13.372866
 30
0.0
 10
-144.334137
 20
-11.842781
 30
0.0
  0
LWPOLYLINE
  5
17d
100
AcDbEntity
  8
Layer_1
 62
7
100
AcDbPolyline
 90
2
 70
0
 10
-210.507542
 20
-73.208438
 30
0.0
 10
-210.507338
 20
-73.208098
 30
0.0
  0
SPLINE
  5
17e
100
AcDbEntity
  8
Layer_1
 62
7
100
AcDbSpline
 70
8
 71
3
 72
8
 73
4
 74
0
 40
0
 40
0
 40
0
 40
0
 40
1
 40
1
 40
1
 40
1
 10
-137.842911
 20
-9.060548
 30
0.0
 10
-132.320880
 20
-8.945178
 30
0.0
 10
-127.618401
 20
-9.035036
 30
0.0
 10
-127.392905
 20
-9.260674
 30
0.0
  0
SPLINE
  5
17f
100
AcDbEntity
  8
Layer_1
 62
7
100
AcDbSpline
 70
8
 71
3
 72
8
 73
4
 74
0
 40
0
 40
0
 40
0
 40
0
 40
1
 40
1
 40
1
 40
1
 10
-127.392905
 20
-9.260674
 30
0.0
 10
-127.167267
 20
-9.486028
 30
0.0
 10
-127.381567
 20
-10.070022
 30
0.0
 10
-127.870430
 20
-10.558148
 30
0.0
  0
SPLINE
  5
180
100
AcDbEntity
  8
Layer_1
 62
7
100
AcDbSpline
 70
8
 71
3
 72
8
 73
4
 74
0
 40
0
 40
0
 40
0
 40
0
 40
1
 40
1
 40
1
 40
1
 10
-127.870430
 20
-10.558148
 30
0.0
 10
-129.648433
 20
-12.336180
 30
0.0
 10
-128.653444
 20
-15.465798
 30
0.0
 10
-123.514288
 20
-24.259776
 30
0.0
  0
SPLINE
  5
181
100
AcDbEntity
  8
Layer_1
 62
7
100
AcDbSpline
 70
8
 71
3
 72
8
 73
4
 74
0
 40
0
 40
0
 40
0
 40
0
 40
1
 40
1
 40
1
 40
1
 10
-123.514288
 20
-24.259776
 30
0.0
 10
-120.630263
 20
-29.194781
 30
0.0
 10
-118.153916
 20
-33.578589
 30
0.0
 10
-118.011249
 20
-34.001575
 30
0.0
  0
SPLINE
  5
182
100
AcDbEntity
  8
Layer_1
 62
7
100
AcDbSpline
 70
8
 71
3
 72
8
 73
4
 74
0
 40
0
 40
0
 40
0
 40
0
 40
1
 40
1
 40
1
 40
1
 10
-118.011249
 20
-34.001575
 30
0.0
 10
-117.563488
 20
-35.329124
 30
0.0
 10
-115.674593
 20
-33.202233
 30
0.0
 10
-109.532200
 20
-24.454346
 30
0.0
  0
SPLINE
  5
183
100
AcDbEntity
  8
Layer_1
 62
7
100
AcDbSpline
 70
8
 71
3
 72
8
 73
4
 74
0
 40
0
 40
0
 40
0
 40
0
 40
1
 40
1
 40
1
 40
1
 10
-109.532200
 20
-24.454346
 30
0.0
 10
-104.164656
 20
-16.809987
 30
0.0
 10
-103.632905
 20
-15.730129
 30
0.0
 10
-103.632905
 20
-12.474170
 30
0.0
  0
LWPOLYLINE
  5
184
100
AcDbEntity
  8
Layer_1
 62
7
100
AcDbPolyline
 90
3
 70
0
 10
-144.334137
 20
-11.842781
 30
0.0
 10
-147.882915
 20
-9.270595
 30
0.0
 10
-137.842911
 20
-9.060548
 30
0.0
  0
SPLINE
  5
185
100
AcDbEntity
  8
Layer_1
 62
7
100
AcDbSpline
 70
8
 71
3
 72
8
 73
4
 74
0
 40
0
 40
0
 40
0
 40
0
 40
1
 40
1
 40
1
 40
1
 10
-93.983828
 20
-11.731153
 30
0.0
 10
-96.554115
 20
-14.043912
 30
0.0
 10
-113.757919
 20
-39.149235
 30
0.0
 10
-113.757919
 20
-40.587364
 30
0.0
  0
SPLINE
  5
186
100
AcDbEntity
  8
Layer_1
 62
7
100
AcDbSpline
 70
8
 71
3
 72
8
 73
4
 74
0
 40
0
 40
0
 40
0
 40
0
 40
1
 40
1
 40
1
 40
1
 10
-113.757919
 20
-40.587364
 30
0.0
 10
-113.757919
 20
-40.831143
 30
0.0
 10
-111.564159
 20
-44.951329
 30
0.0
 10
-108.882924
 20
-49.743071
 30
0.0
  0
SPLINE
  5
187
100
AcDbEntity
  8
Layer_1
 62
7
100
AcDbSpline
 70
8
 71
3
 72
8
 73
4
 74
0
 40
0
 40
0
 40
0
 40
0
 40
1
 40
1
 40
1
 40
1
 10
-108.882924
 20
-49.743071
 30
0.0
 10
-106.201661
 20
-54.534841
 30
0.0
 10
-104.007929
 20
-58.629345
 30
0.0
 10
-104.007929
 20
-58.842000
 30
0.0
  0
SPLINE
  5
188
100
AcDbEntity
  8
Layer_1
 62
7
100
AcDbSpline
 70
8
 71
3
 72
8
 73
4
 74
0
 40
0
 40
0
 40
0
 40
0
 40
1
 40
1
 40
1
 40
1
 10
-104.007929
 20
-58.842000
 30
0.0
 10
-104.007929
 20
-59.952331
 30
0.0
 10
-97.758839
 20
-68.196813
 30
0.0
 10
-95.088943
 20
-70.608898
 30
0.0
  0
SPLINE
  5
189
100
AcDbEntity
  8
Layer_1
 62
7
100
AcDbSpline
 70
8
 71
3
 72
8
 73
4
 74
0
 40
0
 40
0
 40
0
 40
0
 40
1
 40
1
 40
1
 40
1
 10
-95.088943
 20
-70.608898
 30
0.0
 10
-93.394392
 20
-72.139833
 30
0.0
 10
-92.007910
 20
-73.562060
 30
0.0
 10
-92.007910
 20
-73.769386
 30
0.0
  0
SPLINE
  5
18a
100
AcDbEntity
  8
Layer_1
 62
7
100
AcDbSpline
 70
8
 71
3
 72
8
 73
4
 74
0
 40
0
 40
0
 40
0
 40
0
 40
1
 40
1
 40
1
 40
1
 10
-92.007910
 20
-73.769386
 30
0.0
 10
-92.007910
 20
-73.976598
 30
0.0
 10
-95.720417
 20
-74.146337
 30
0.0
 10
-100.257919
 20
-74.146337
 30
0.0
  0
LWPOLYLINE
  5
18b
100
AcDbEntity
  8
Layer_1
 62
7
100
AcDbPolyline
 90
5
 70
0
 10
-103.632905
 20
-12.474170
 30
0.0
 10
-103.632905
 20
-8.895657
 30
0.0
 10
-97.257929
 20
-8.918334
 30
0.0
 10
-90.882924
 20
-8.941011
 30
0.0
 10
-93.983828
 20
-11.731153
 30
0.0
  0
SPLINE
  5
18c
100
AcDbEntity
  8
Layer_1
 62
7
100
AcDbSpline
 70
8
 71
3
 72
8
 73
4
 74
0
 40
0
 40
0
 40
0
 40
0
 40
1
 40
1
 40
1
 40
1
 10
-108.507929
 20
-70.949820
 30
0.0
 10
-108.507929
 20
-68.348665
 30
0.0
 10
-109.485456
 20
-66.081203
 30
0.0
 10
-113.762143
 20
-58.762318
 30
0.0
  0
SPLINE
  5
18d
100
AcDbEntity
  8
Layer_1
 62
7
100
AcDbSpline
 70
8
 71
3
 72
8
 73
4
 74
0
 40
0
 40
0
 40
0
 40
0
 40
1
 40
1
 40
1
 40
1
 10
-113.762143
 20
-58.762318
 30
0.0
 10
-116.651951
 20
-53.816825
 30
0.0
 10
-119.267592
 20
-49.696044
 30
0.0
 10
-119.574641
 20
-49.605052
 30
0.0
  0
SPLINE
  5
18e
100
AcDbEntity
  8
Layer_1
 62
7
100
AcDbSpline
 70
8
 71
3
 72
8
 73
4
 74
0
 40
0
 40
0
 40
0
 40
0
 40
1
 40
1
 40
1
 40
1
 10
-119.574641
 20
-49.605052
 30
0.0
 10
-120.353885
 20
-49.374028
 30
0.0
 10
-130.894401
 20
-63.940620
 30
0.0
 10
-132.187510
 20
-67.035430
 30
0.0
  0
SPLINE
  5
18f
100
AcDbEntity
  8
Layer_1
 62
7
100
AcDbSpline
 70
8
 71
3
 72
8
 73
4
 74
0
 40
0
 40
0
 40
0
 40
0
 40
1
 40
1
 40
1
 40
1
 10
-132.187510
 20
-67.035430
 30
0.0
 10
-132.925567
 20
-68.801868
 30
0.0
 10
-133.036061
 20
-70.131373
 30
0.0
 10
-132.550883
 20
-71.407502
 30
0.0
  0
SPLINE
  5
190
100
AcDbEntity
  8
Layer_1
 62
7
100
AcDbSpline
 70
8
 71
3
 72
8
 73
4
 74
0
 40
0
 40
0
 40
0
 40
0
 40
1
 40
1
 40
1
 40
1
 10
-132.550883
 20
-71.407502
 30
0.0
 10
-132.167412
 20
-72.416069
 30
0.0
 10
-132.057145
 20
-73.444706
 30
0.0
 10
-132.305686
 20
-73.693389
 30
0.0
  0
SPLINE
  5
191
100
AcDbEntity
  8
Layer_1
 62
7
100
AcDbSpline
 70
8
 71
3
 72
8
 73
4
 74
0
 40
0
 40
0
 40
0
 40
0
 40
1
 40
1
 40
1
 40
1
 10
-132.305686
 20
-73.693389
 30
0.0
 10
-132.554285
 20
-73.941987
 30
0.0
 10
-136.498439
 20
-74.129669
 30
0.0
 10
-141.070297
 20
-74.110280
 30
0.0
  0
LWPOLYLINE
  5
192
100
AcDbEntity
  8
Layer_1
 62
7
100
AcDbPolyline
 90
3
 70
0
 10
-100.257919
 20
-74.146337
 30
0.0
 10
-108.507929
 20
-74.146337
 30
0.0
 10
-108.507929
 20
-70.949820
 30
0.0
  0
SPLINE
  5
193
100
AcDbEntity
  8
Layer_1
 62
7
100
AcDbSpline
 70
8
 71
3
 72
8
 73
4
 74
0
 40
0
 40
0
 40
0
 40
0
 40
1
 40
1
 40
1
 40
1
 10
-74.757929
 20
-73.526315
 30
0.0
 10
-74.757929
 20
-73.185732
 30
0.0
 10
-73.903623
 20
-72.104485
 30
0.0
 10
-72.859453
 20
-71.123556
 30
0.0
  0
SPLINE
  5
194
100
AcDbEntity
  8
Layer_1
 62
7
100
AcDbSpline
 70
8
 71
3
 72
8
 73
4
 74
0
 40
0
 40
0
 40
0
 40
0
 40
1
 40
1
 40
1
 40
1
 10
-72.859453
 20
-71.123556
 30
0.0
 10
-69.150008
 20
-67.638699
 30
0.0
 10
-68.469239
 20
-62.982709
 30
0.0
 10
-68.561082
 20
-41.725304
 30
0.0
  0
SPLINE
  5
195
100
AcDbEntity
  8
Layer_1
 62
7
100
AcDbSpline
 70
8
 71
3
 72
8
 73
4
 74
0
 40
0
 40
0
 40
0
 40
0
 40
1
 40
1
 40
1
 40
1
 10
-68.561082
 20
-41.725304
 30
0.0
 10
-68.657743
 20
-19.382854
 30
0.0
 10
-69.275015
 20
-14.978466
 30
0.0
 10
-72.805538
 20
-11.447972
 30
0.0
  0
LWPOLYLINE
  5
196
100
AcDbEntity
  8
Layer_1
 62
7
100
AcDbPolyline
 90
4
 70
0
 10
-141.070297
 20
-74.110280
 30
0.0
 10
-149.382811
 20
-74.075131
 30
0.0
 10
-146.770685
 20
-72.047820
 30
0.0
 10
-146.770798
 20
-72.047877
 30
0.0
  0
SPLINE
  5
197
100
AcDbEntity
  8
Layer_1
 62
7
100
AcDbSpline
 70
8
 71
3
 72
8
 73
4
 74
0
 40
0
 40
0
 40
0
 40
0
 40
1
 40
1
 40
1
 40
1
 10
-61.871034
 20
-8.535600
 30
0.0
 10
-47.751381
 20
-7.964532
 30
0.0
 10
-42.872502
 20
-8.283883
 30
0.0
 10
-36.968332
 20
-10.165890
 30
0.0
  0
SPLINE
  5
198
100
AcDbEntity
  8
Layer_1
 62
7
100
AcDbSpline
 70
8
 71
3
 72
8
 73
4
 74
0
 40
0
 40
0
 40
0
 40
0
 40
1
 40
1
 40
1
 40
1
 10
-36.968332
 20
-10.165890
 30
0.0
 10
-29.376414
 20
-12.585770
 30
0.0
 10
-23.779349
 20
-20.356696
 30
0.0
 10
-23.765232
 20
-28.496976
 30
0.0
  0
SPLINE
  5
199
100
AcDbEntity
  8
Layer_1
 62
7
100
AcDbSpline
 70
8
 71
3
 72
8
 73
4
 74
0
 40
0
 40
0
 40
0
 40
0
 40
1
 40
1
 40
1
 40
1
 10
-23.765232
 20
-28.496976
 30
0.0
 10
-23.753894
 20
-35.141159
 30
0.0
 10
-26.271201
 20
-39.714350
 30
0.0
 10
-31.944206
 20
-43.354687
 30
0.0
  0
SPLINE
  5
19a
100
AcDbEntity
  8
Layer_1
 62
7
100
AcDbSpline
 70
8
 71
3
 72
8
 73
4
 74
0
 40
0
 40
0
 40
0
 40
0
 40
1
 40
1
 40
1
 40
1
 10
-31.944206
 20
-43.354687
 30
0.0
 10
-37.099604
 20
-46.662917
 30
0.0
 10
-41.826149
 20
-47.925156
 30
0.0
 10
-50.905208
 20
-48.418384
 30
0.0
  0
SPLINE
  5
19b
100
AcDbEntity
  8
Layer_1
 62
7
100
AcDbSpline
 70
8
 71
3
 72
8
 73
4
 74
0
 40
0
 40
0
 40
0
 40
0
 40
1
 40
1
 40
1
 40
1
 10
-50.905208
 20
-48.418384
 30
0.0
 10
-56.626855
 20
-48.729203
 30
0.0
 10
-59.038855
 20
-49.144394
 30
0.0
 10
-59.315800
 20
-49.866151
 30
0.0
  0
SPLINE
  5
19c
100
AcDbEntity
  8
Layer_1
 62
7
100
AcDbSpline
 70
8
 71
3
 72
8
 73
4
 74
0
 40
0
 40
0
 40
0
 40
0
 40
1
 40
1
 40
1
 40
1
 10
-59.315800
 20
-49.866151
 30
0.0
 10
-59.529532
 20
-50.422706
 30
0.0
 10
-59.625598
 20
-54.341405
 30
0.0
 10
-59.529532
 20
-58.574324
 30
0.0
  0
SPLINE
  5
19d
100
AcDbEntity
  8
Layer_1
 62
7
100
AcDbSpline
 70
8
 71
3
 72
8
 73
4
 74
0
 40
0
 40
0
 40
0
 40
0
 40
1
 40
1
 40
1
 40
1
 10
-59.529532
 20
-58.574324
 30
0.0
 10
-59.354067
 20
-66.316564
 30
0.0
 10
-58.955346
 20
-67.703159
 30
0.0
 10
-55.537756
 20
-72.458079
 30
0.0
  0
LWPOLYLINE
  5
19e
100
AcDbEntity
  8
Layer_1
 62
7
100
AcDbPolyline
 90
3
 70
0
 10
-72.805538
 20
-11.447972
 30
0.0
 10
-75.179667
 20
-9.073843
 30
0.0
 10
-61.871034
 20
-8.535600
 30
0.0
  0
SPLINE
  5
19f
100
AcDbEntity
  8
Layer_1
 62
7
100
AcDbSpline
 70
8
 71
3
 72
8
 73
4
 74
0
 40
0
 40
0
 40
0
 40
0
 40
1
 40
1
 40
1
 40
1
 10
-64.541356
 20
-74.145600
 30
0.0
 10
-70.160417
 20
-74.145600
 30
0.0
 10
-74.757844
 20
-73.866954
 30
0.0
 10
-74.757844
 20
-73.526315
 30
0.0
  0
LWPOLYLINE
  5
1a0
100
AcDbEntity
  8
Layer_1
 62
7
100
AcDbPolyline
 90
3
 70
0
 10
-55.537756
 20
-72.458079
 30
0.0
 10
-54.324867
 20
-74.145600
 30
0.0
 10
-64.541356
 20
-74.145600
 30
0.0
  0
SPLINE
  5
1a1
100
AcDbEntity
  8
Layer_1
 62
7
100
AcDbSpline
 70
8
 71
3
 72
8
 73
4
 74
0
 40
0
 40
0
 40
0
 40
0
 40
1
 40
1
 40
1
 40
1
 10
-41.901919
 20
-41.593550
 30
0.0
 10
-35.414748
 20
-38.306239
 30
0.0
 10
-32.366795
 20
-31.668718
 30
0.0
 10
-34.206735
 20
-24.835691
 30
0.0
  0
SPLINE
  5
1a2
100
AcDbEntity
  8
Layer_1
 62
7
100
AcDbSpline
 70
8
 71
3
 72
8
 73
4
 74
0
 40
0
 40
0
 40
0
 40
0
 40
1
 40
1
 40
1
 40
1
 10
-34.206735
 20
-24.835691
 30
0.0
 10
-36.027116
 20
-18.075288
 30
0.0
 10
-42.485658
 20
-13.411559
 30
0.0
 10
-50.856820
 20
-12.812598
 30
0.0
  0
SPLINE
  5
1a3
100
AcDbEntity
  8
Layer_1
 62
7
100
AcDbSpline
 70
8
 71
3
 72
8
 73
4
 74
0
 40
0
 40
0
 40
0
 40
0
 40
1
 40
1
 40
1
 40
1
 10
-50.856820
 20
-12.812598
 30
0.0
 10
-54.400467
 20
-12.559181
 30
0.0
 10
-56.689472
 20
-12.756756
 30
0.0
 10
-57.936943
 20
-13.424513
 30
0.0
  0
LWPOLYLINE
  5
1a4
100
AcDbEntity
  8
Layer_1
 62
7
100
AcDbPolyline
 90
1
 70
1
 10
-74.757844
 20
-73.526315
 30
0.0
  0
SPLINE
  5
1a5
100
AcDbEntity
  8
Layer_1
 62
7
100
AcDbSpline
 70
8
 71
3
 72
8
 73
4
 74
0
 40
0
 40
0
 40
0
 40
0
 40
1
 40
1
 40
1
 40
1
 10
-56.850622
 20
-43.310239
 30
0.0
 10
-52.551541
 20
-44.526444
 30
0.0
 10
-46.264978
 20
-43.804517
 30
0.0
 10
-41.901863
 20
-41.593550
 30
0.0
  0
LWPOLYLINE
  5
1a6
100
AcDbEntity
  8
Layer_1
 62
7
100
AcDbPolyline
 90
5
 70
0
 10
-57.936943
 20
-13.424513
 30
0.0
 10
-59.780426
 20
-14.411083
 30
0.0
 10
-59.674411
 20
-28.476255
 30
0.0
 10
-59.568395
 20
-42.541370
 30
0.0
 10
-56.850622
 20
-43.310239
 30
0.0
  0
SPLINE
  5
1a7
100
AcDbEntity
  8
Layer_1
 62
7
100
AcDbSpline
 70
8
 71
3
 72
8
 73
4
 74
0
 40
0
 40
0
 40
0
 40
0
 40
1
 40
1
 40
1
 40
1
 10
153.609321
 20
9.050315
 30
0.0
 10
149.245328
 20
10.994428
 30
0.0
 10
144.486921
 20
16.210233
 30
0.0
 10
139.415939
 20
24.608041
 30
0.0
  0
SPLINE
  5
1a8
100
AcDbEntity
  8
Layer_1
 62
7
100
AcDbSpline
 70
8
 71
3
 72
8
 73
4
 74
0
 40
0
 40
0
 40
0
 40
0
 40
1
 40
1
 40
1
 40
1
 10
139.415939
 20
24.608041
 30
0.0
 10
131.575167
 20
37.592787
 30
0.0
 10
127.250433
 20
41.987112
 30
0.0
 10
121.208641
 20
43.108328
 30
0.0
  0
SPLINE
  5
1a9
100
AcDbEntity
  8
Layer_1
 62
7
100
AcDbSpline
 70
8
 71
3
 72
8
 73
4
 74
0
 40
0
 40
0
 40
0
 40
0
 40
1
 40
1
 40
1
 40
1
 10
121.208641
 20
43.108328
 30
0.0
 10
117.149060
 20
43.861720
 30
0.0
 10
116.730751
 20
42.771742
 30
0.0
 10
116.558178
 20
30.991068
 30
0.0
  0
SPLINE
  5
1aa
100
AcDbEntity
  8
Layer_1
 62
7
100
AcDbSpline
 70
8
 71
3
 72
8
 73
4
 74
0
 40
0
 40
0
 40
0
 40
0
 40
1
 40
1
 40
1
 40
1
 10
116.558178
 20
30.991068
 30
0.0
 10
116.399154
 20
20.134517
 30
0.0
 10
117.066685
 20
16.676164
 30
0.0
 10
119.750924
 20
14.450088
 30
0.0
  0
SPLINE
  5
1ab
100
AcDbEntity
  8
Layer_1
 62
7
100
AcDbSpline
 70
8
 71
3
 72
8
 73
4
 74
0
 40
0
 40
0
 40
0
 40
0
 40
1
 40
1
 40
1
 40
1
 10
119.750924
 20
14.450088
 30
0.0
 10
120.433592
 20
13.883953
 30
0.0
 10
120.992726
 20
13.208939
 30
0.0
 10
120.993463
 20
12.950079
 30
0.0
  0
SPLINE
  5
1ac
100
AcDbEntity
  8
Layer_1
 62
7
100
AcDbSpline
 70
8
 71
3
 72
8
 73
4
 74
0
 40
0
 40
0
 40
0
 40
0
 40
1
 40
1
 40
1
 40
1
 10
120.993463
 20
12.950079
 30
0.0
 10
120.994228
 20
12.691276
 30
0.0
 10
116.761876
 20
12.583276
 30
0.0
 10
111.588250
 20
12.710268
 30
0.0
  0
LWPOLYLINE
  5
1ad
100
AcDbEntity
  8
Layer_1
 62
7
100
AcDbPolyline
 90
1
 70
1
 10
-41.901863
 20
-41.593550
 30
0.0
  0
SPLINE
  5
1ae
100
AcDbEntity
  8
Layer_1
 62
7
100
AcDbSpline
 70
8
 71
3
 72
8
 73
4
 74
0
 40
0
 40
0
 40
0
 40
0
 40
1
 40
1
 40
1
 40
1
 10
104.067142
 20
15.181795
 30
0.0
 10
105.104197
 20
16.414243
 30
0.0
 10
106.277740
 20
18.672860
 30
0.0
 10
106.675072
 20
20.200989
 30
0.0
  0
SPLINE
  5
1af
100
AcDbEntity
  8
Layer_1
 62
7
100
AcDbSpline
 70
8
 71
3
 72
8
 73
4
 74
0
 40
0
 40
0
 40
0
 40
0
 40
1
 40
1
 40
1
 40
1
 10
106.675072
 20
20.200989
 30
0.0
 10
107.072405
 20
21.729118
 30
0.0
 10
107.503157
 20
33.610620
 30
0.0
 10
107.632304
 20
46.604381
 30
0.0
  0
SPLINE
  5
1b0
100
AcDbEntity
  8
Layer_1
 62
7
100
AcDbSpline
 70
8
 71
3
 72
8
 73
4
 74
0
 40
0
 40
0
 40
0
 40
0
 40
1
 40
1
 40
1
 40
1
 10
107.632304
 20
46.604381
 30
0.0
 10
107.849438
 20
68.450457
 30
0.0
 10
107.762131
 20
70.427055
 30
0.0
 10
106.473643
 20
72.854391
 30
0.0
  0
SPLINE
  5
1b1
100
AcDbEntity
  8
Layer_1
 62
7
100
AcDbSpline
 70
8
 71
3
 72
8
 73
4
 74
0
 40
0
 40
0
 40
0
 40
0
 40
1
 40
1
 40
1
 40
1
 10
106.473643
 20
72.854391
 30
0.0
 10
105.707239
 20
74.298132
 30
0.0
 10
104.357239
 20
76.062501
 30
0.0
 10
103.473652
 20
76.775216
 30
0.0
  0
SPLINE
  5
1b2
100
AcDbEntity
  8
Layer_1
 62
7
100
AcDbSpline
 70
8
 71
3
 72
8
 73
4
 74
0
 40
0
 40
0
 40
0
 40
0
 40
1
 40
1
 40
1
 40
1
 10
103.473652
 20
76.775216
 30
0.0
 10
101.938465
 20
78.013502
 30
0.0
 10
102.530452
 20
78.071783
 30
0.0
 10
116.805671
 20
78.087713
 30
0.0
  0
SPLINE
  5
1b3
100
AcDbEntity
  8
Layer_1
 62
7
100
AcDbSpline
 70
8
 71
3
 72
8
 73
4
 74
0
 40
0
 40
0
 40
0
 40
0
 40
1
 40
1
 40
1
 40
1
 10
116.805671
 20
78.087713
 30
0.0
 10
134.165239
 20
78.107556
 30
0.0
 10
139.797737
 20
77.334123
 30
0.0
 10
144.630524
 20
74.269276
 30
0.0
  0
SPLINE
  5
1b4
100
AcDbEntity
  8
Layer_1
 62
7
100
AcDbSpline
 70
8
 71
3
 72
8
 73
4
 74
0
 40
0
 40
0
 40
0
 40
0
 40
1
 40
1
 40
1
 40
1
 10
144.630524
 20
74.269276
 30
0.0
 10
150.471028
 20
70.565329
 30
0.0
 10
152.801107
 20
62.135717
 30
0.0
 10
149.902172
 20
55.197638
 30
0.0
  0
SPLINE
  5
1b5
100
AcDbEntity
  8
Layer_1
 62
7
100
AcDbSpline
 70
8
 71
3
 72
8
 73
4
 74
0
 40
0
 40
0
 40
0
 40
0
 40
1
 40
1
 40
1
 40
1
 10
149.902172
 20
55.197638
 30
0.0
 10
147.317995
 20
49.012809
 30
0.0
 10
142.817031
 20
46.155203
 30
0.0
 10
133.576313
 20
44.832557
 30
0.0
  0
SPLINE
  5
1b6
100
AcDbEntity
  8
Layer_1
 62
7
100
AcDbSpline
 70
8
 71
3
 72
8
 73
4
 74
0
 40
0
 40
0
 40
0
 40
0
 40
1
 40
1
 40
1
 40
1
 10
133.576313
 20
44.832557
 30
0.0
 10
131.468726
 20
44.530894
 30
0.0
 10
131.256666
 20
43.777729
 30
0.0
 10
133.123082
 20
43.222819
 30
0.0
  0
SPLINE
  5
1b7
100
AcDbEntity
  8
Layer_1
 62
7
100
AcDbSpline
 70
8
 71
3
 72
8
 73
4
 74
0
 40
0
 40
0
 40
0
 40
0
 40
1
 40
1
 40
1
 40
1
 10
133.123082
 20
43.222819
 30
0.0
 10
138.185249
 20
41.717820
 30
0.0
 10
145.256981
 20
33.836655
 30
0.0
 10
152.938786
 20
21.139030
 30
0.0
  0
SPLINE
  5
1b8
100
AcDbEntity
  8
Layer_1
 62
7
100
AcDbSpline
 70
8
 71
3
 72
8
 73
4
 74
0
 40
0
 40
0
 40
0
 40
0
 40
1
 40
1
 40
1
 40
1
 10
152.938786
 20
21.139030
 30
0.0
 10
154.549375
 20
18.476816
 30
0.0
 10
157.080487
 20
15.017443
 30
0.0
 10
158.563488
 20
13.451528
 30
0.0
  0
SPLINE
  5
1b9
100
AcDbEntity
  8
Layer_1
 62
7
100
AcDbSpline
 70
8
 71
3
 72
8
 73
4
 74
0
 40
0
 40
0
 40
0
 40
0
 40
1
 40
1
 40
1
 40
1
 10
158.563488
 20
13.451528
 30
0.0
 10
160.855866
 20
11.030967
 30
0.0
 10
161.734124
 20
10.604381
 30
0.0
 10
164.425280
 20
10.604381
 30
0.0
  0
SPLINE
  5
1ba
100
AcDbEntity
  8
Layer_1
 62
7
100
AcDbSpline
 70
8
 71
3
 72
8
 73
4
 74
0
 40
0
 40
0
 40
0
 40
0
 40
1
 40
1
 40
1
 40
1
 10
164.425280
 20
10.604381
 30
0.0
 10
166.166263
 20
10.604381
 30
0.0
 10
168.243548
 20
10.953751
 30
0.0
 10
169.041416
 20
11.380762
 30
0.0
  0
SPLINE
  5
1bb
100
AcDbEntity
  8
Layer_1
 62
7
100
AcDbSpline
 70
8
 71
3
 72
8
 73
4
 74
0
 40
0
 40
0
 40
0
 40
0
 40
1
 40
1
 40
1
 40
1
 10
169.041416
 20
11.380762
 30
0.0
 10
170.012707
 20
11.900580
 30
0.0
 10
170.492102
 20
11.905625
 30
0.0
 10
170.492102
 20
11.394935
 30
0.0
  0
SPLINE
  5
1bc
100
AcDbEntity
  8
Layer_1
 62
7
100
AcDbSpline
 70
8
 71
3
 72
8
 73
4
 74
0
 40
0
 40
0
 40
0
 40
0
 40
1
 40
1
 40
1
 40
1
 10
170.492102
 20
11.394935
 30
0.0
 10
170.492102
 20
10.976315
 30
0.0
 10
169.155567
 20
9.951931
 30
0.0
 10
167.521989
 20
9.118545
 30
0.0
  0
SPLINE
  5
1bd
100
AcDbEntity
  8
Layer_1
 62
7
100
AcDbSpline
 70
8
 71
3
 72
8
 73
4
 74
0
 40
0
 40
0
 40
0
 40
0
 40
1
 40
1
 40
1
 40
1
 10
167.521989
 20
9.118545
 30
0.0
 10
163.816002
 20
7.227893
 30
0.0
 10
157.765337
 20
7.197732
 30
0.0
 10
153.609321
 20
9.049096
 30
0.0
  0
LWPOLYLINE
  5
1be
100
AcDbEntity
  8
Layer_1
 62
7
100
AcDbPolyline
 90
3
 70
0
 10
111.588250
 20
12.710268
 30
0.0
 10
102.181649
 20
12.941008
 30
0.0
 10
104.067142
 20
15.181795
 30
0.0
  0
SPLINE
  5
1bf
100
AcDbEntity
  8
Layer_1
 62
7
100
AcDbSpline
 70
8
 71
3
 72
8
 73
4
 74
0
 40
0
 40
0
 40
0
 40
0
 40
1
 40
1
 40
1
 40
1
 10
130.367126
 20
48.183477
 30
0.0
 10
134.277746
 20
49.253301
 30
0.0
 10
140.098748
 20
55.147521
 30
0.0
 10
140.768065
 20
58.715235
 30
0.0
  0
SPLINE
  5
1c0
100
AcDbEntity
  8
Layer_1
 62
7
100
AcDbSpline
 70
8
 71
3
 72
8
 73
4
 74
0
 40
0
 40
0
 40
0
 40
0
 40
1
 40
1
 40
1
 40
1
 10
140.768065
 20
58.715235
 30
0.0
 10
141.471198
 20
62.463288
 30
0.0
 10
139.444909
 20
68.590091
 30
0.0
 10
136.753044
 20
70.855115
 30
0.0
  0
SPLINE
  5
1c1
100
AcDbEntity
  8
Layer_1
 62
7
100
AcDbSpline
 70
8
 71
3
 72
8
 73
4
 74
0
 40
0
 40
0
 40
0
 40
0
 40
1
 40
1
 40
1
 40
1
 10
136.753044
 20
70.855115
 30
0.0
 10
133.489233
 20
73.601433
 30
0.0
 10
127.577353
 20
75.338702
 30
0.0
 10
122.834055
 20
74.945339
 30
0.0
  0
SPLINE
  5
1c2
100
AcDbEntity
  8
Layer_1
 62
7
100
AcDbSpline
 70
8
 71
3
 72
8
 73
4
 74
0
 40
0
 40
0
 40
0
 40
0
 40
1
 40
1
 40
1
 40
1
 10
122.834055
 20
74.945339
 30
0.0
 10
116.398049
 20
74.411603
 30
0.0
 10
116.421775
 20
74.466340
 30
0.0
 10
116.529548
 20
60.406611
 30
0.0
  0
SPLINE
  5
1c3
100
AcDbEntity
  8
Layer_1
 62
7
100
AcDbSpline
 70
8
 71
3
 72
8
 73
4
 74
0
 40
0
 40
0
 40
0
 40
0
 40
1
 40
1
 40
1
 40
1
 10
116.529548
 20
60.406611
 30
0.0
 10
116.611753
 20
49.696923
 30
0.0
 10
116.777013
 20
48.148384
 30
0.0
 10
117.870165
 20
47.858797
 30
0.0
  0
SPLINE
  5
1c4
100
AcDbEntity
  8
Layer_1
 62
7
100
AcDbSpline
 70
8
 71
3
 72
8
 73
4
 74
0
 40
0
 40
0
 40
0
 40
0
 40
1
 40
1
 40
1
 40
1
 10
117.870165
 20
47.858797
 30
0.0
 10
120.362216
 20
47.198523
 30
0.0
 10
127.438852
 20
47.382406
 30
0.0
 10
130.367126
 20
48.183477
 30
0.0
  0
LWPOLYLINE
  5
1c5
100
AcDbEntity
  8
Layer_1
 62
7
100
AcDbPolyline
 90
2
 70
0
 10
153.609321
 20
9.049096
 30
0.0
 10
153.609321
 20
9.050315
 30
0.0
  0
SPLINE
  5
1c6
100
AcDbEntity
  8
Layer_1
 62
7
100
AcDbSpline
 70
8
 71
3
 72
8
 73
4
 74
0
 40
0
 40
0
 40
0
 40
0
 40
1
 40
1
 40
1
 40
1
 10
-95.382924
 20
12.073606
 30
0.0
 10
-102.621900
 20
13.640769
 30
0.0
 10
-107.125812
 20
15.982271
 30
0.0
 10
-111.832033
 20
20.625194
 30
0.0
  0
SPLINE
  5
1c7
100
AcDbEntity
  8
Layer_1
 62
7
100
AcDbSpline
 70
8
 71
3
 72
8
 73
4
 74
0
 40
0
 40
0
 40
0
 40
0
 40
1
 40
1
 40
1
 40
1
 10
-111.832033
 20
20.625194
 30
0.0
 10
-119.512165
 20
28.201975
 30
0.0
 10
-123.268411
 20
38.222986
 30
0.0
 10
-122.553938
 20
49.229405
 30
0.0
  0
SPLINE
  5
1c8
100
AcDbEntity
  8
Layer_1
 62
7
100
AcDbSpline
 70
8
 71
3
 72
8
 73
4
 74
0
 40
0
 40
0
 40
0
 40
0
 40
1
 40
1
 40
1
 40
1
 10
-122.553938
 20
49.229405
 30
0.0
 10
-121.643904
 20
63.248655
 30
0.0
 10
-113.616527
 20
73.887449
 30
0.0
 10
-100.439308
 20
78.538195
 30
0.0
  0
SPLINE
  5
1c9
100
AcDbEntity
  8
Layer_1
 62
7
100
AcDbSpline
 70
8
 71
3
 72
8
 73
4
 74
0
 40
0
 40
0
 40
0
 40
0
 40
1
 40
1
 40
1
 40
1
 10
-100.439308
 20
78.538195
 30
0.0
 10
-94.285491
 20
80.710101
 30
0.0
 10
-85.334757
 20
80.965219
 30
0.0
 10
-79.206537
 20
79.143364
 30
0.0
  0
SPLINE
  5
1ca
100
AcDbEntity
  8
Layer_1
 62
7
100
AcDbSpline
 70
8
 71
3
 72
8
 73
4
 74
0
 40
0
 40
0
 40
0
 40
0
 40
1
 40
1
 40
1
 40
1
 10
-79.206537
 20
79.143364
 30
0.0
 10
-76.417019
 20
78.314088
 30
0.0
 10
-73.774023
 20
78.073994
 30
0.0
 10
-70.822052
 20
78.381694
 30
0.0
  0
LWPOLYLINE
  5
1cb
100
AcDbEntity
  8
Layer_1
 62
7
100
AcDbPolyline
 90
1
 70
1
 10
130.367126
 20
48.183477
 30
0.0
  0
SPLINE
  5
1cc
100
AcDbEntity
  8
Layer_1
 62
7
100
AcDbSpline
 70
8
 71
3
 72
8
 73
4
 74
0
 40
0
 40
0
 40
0
 40
0
 40
1
 40
1
 40
1
 40
1
 10
-66.757226
 20
71.345169
 30
0.0
 10
-66.892439
 20
67.227931
 30
0.0
 10
-67.176442
 20
63.685984
 30
0.0
 10
-67.388219
 20
63.474180
 30
0.0
  0
SPLINE
  5
1cd
100
AcDbEntity
  8
Layer_1
 62
7
100
AcDbSpline
 70
8
 71
3
 72
8
 73
4
 74
0
 40
0
 40
0
 40
0
 40
0
 40
1
 40
1
 40
1
 40
1
 10
-67.388219
 20
63.474180
 30
0.0
 10
-67.599967
 20
63.262431
 30
0.0
 10
-68.393157
 20
64.463726
 30
0.0
 10
-69.150745
 20
66.143792
 30
0.0
  0
SPLINE
  5
1ce
100
AcDbEntity
  8
Layer_1
 62
7
100
AcDbSpline
 70
8
 71
3
 72
8
 73
4
 74
0
 40
0
 40
0
 40
0
 40
0
 40
1
 40
1
 40
1
 40
1
 10
-69.150745
 20
66.143792
 30
0.0
 10
-71.927620
 20
72.301776
 30
0.0
 10
-78.485374
 20
75.854409
 30
0.0
 10
-87.075400
 20
75.854409
 30
0.0
  0
SPLINE
  5
1cf
100
AcDbEntity
  8
Layer_1
 62
7
100
AcDbSpline
 70
8
 71
3
 72
8
 73
4
 74
0
 40
0
 40
0
 40
0
 40
0
 40
1
 40
1
 40
1
 40
1
 10
-87.075400
 20
75.854409
 30
0.0
 10
-101.105138
 20
75.854409
 30
0.0
 10
-109.668603
 20
65.529298
 30
0.0
 10
-110.585271
 20
47.508151
 30
0.0
  0
SPLINE
  5
1d0
100
AcDbEntity
  8
Layer_1
 62
7
100
AcDbSpline
 70
8
 71
3
 72
8
 73
4
 74
0
 40
0
 40
0
 40
0
 40
0
 40
1
 40
1
 40
1
 40
1
 10
-110.585271
 20
47.508151
 30
0.0
 10
-111.148543
 20
36.434523
 30
0.0
 10
-108.892959
 20
27.907710
 30
0.0
 10
-103.894430
 20
22.214636
 30
0.0
  0
SPLINE
  5
1d1
100
AcDbEntity
  8
Layer_1
 62
7
100
AcDbSpline
 70
8
 71
3
 72
8
 73
4
 74
0
 40
0
 40
0
 40
0
 40
0
 40
1
 40
1
 40
1
 40
1
 10
-103.894430
 20
22.214636
 30
0.0
 10
-97.642789
 20
15.094290
 30
0.0
 10
-84.293592
 20
13.869666
 30
0.0
 10
-76.271856
 20
19.680605
 30
0.0
  0
LWPOLYLINE
  5
1d2
100
AcDbEntity
  8
Layer_1
 62
7
100
AcDbPolyline
 90
3
 70
0
 10
-70.822052
 20
78.381694
 30
0.0
 10
-66.511179
 20
78.831071
 30
0.0
 10
-66.757226
 20
71.345169
 30
0.0
  0
SPLINE
  5
1d3
100
AcDbEntity
  8
Layer_1
 62
7
100
AcDbSpline
 70
8
 71
3
 72
8
 73
4
 74
0
 40
0
 40
0
 40
0
 40
0
 40
1
 40
1
 40
1
 40
1
 10
-73.275012
 20
30.671603
 30
0.0
 10
-73.297689
 20
43.053137
 30
0.0
 10
-75.510499
 20
47.314687
 30
0.0
 10
-83.035945
 20
49.473836
 30
0.0
  0
LWPOLYLINE
  5
1d4
100
AcDbEntity
  8
Layer_1
 62
7
100
AcDbPolyline
 90
3
 70
0
 10
-76.271856
 20
19.680605
 30
0.0
 10
-73.258004
 20
21.863820
 30
0.0
 10
-73.275012
 20
30.671603
 30
0.0
  0
SPLINE
  5
1d5
100
AcDbEntity
  8
Layer_1
 62
7
100
AcDbSpline
 70
8
 71
3
 72
8
 73
4
 74
0
 40
0
 40
0
 40
0
 40
0
 40
1
 40
1
 40
1
 40
1
 10
-82.258515
 20
50.384665
 30
0.0
 10
-76.286200
 20
50.677540
 30
0.0
 10
-62.008515
 20
50.765443
 30
0.0
 10
-62.008515
 20
50.509389
 30
0.0
  0
SPLINE
  5
1d6
100
AcDbEntity
  8
Layer_1
 62
7
100
AcDbSpline
 70
8
 71
3
 72
8
 73
4
 74
0
 40
0
 40
0
 40
0
 40
0
 40
1
 40
1
 40
1
 40
1
 10
-62.008515
 20
50.509389
 30
0.0
 10
-62.008515
 20
50.373043
 30
0.0
 10
-62.564474
 20
48.561534
 30
0.0
 10
-63.243995
 20
46.484022
 30
0.0
  0
SPLINE
  5
1d7
100
AcDbEntity
  8
Layer_1
 62
7
100
AcDbSpline
 70
8
 71
3
 72
8
 73
4
 74
0
 40
0
 40
0
 40
0
 40
0
 40
1
 40
1
 40
1
 40
1
 10
-63.243995
 20
46.484022
 30
0.0
 10
-64.235497
 20
43.452680
 30
0.0
 10
-64.393869
 20
40.906885
 30
0.0
 10
-64.045860
 20
33.593102
 30
0.0
  0
SPLINE
  5
1d8
100
AcDbEntity
  8
Layer_1
 62
7
100
AcDbSpline
 70
8
 71
3
 72
8
 73
4
 74
0
 40
0
 40
0
 40
0
 40
0
 40
1
 40
1
 40
1
 40
1
 10
-64.045860
 20
33.593102
 30
0.0
 10
-63.807466
 20
28.580598
 30
0.0
 10
-63.432669
 20
23.973222
 30
0.0
 10
-63.213126
 20
23.354476
 30
0.0
  0
SPLINE
  5
1d9
100
AcDbEntity
  8
Layer_1
 62
7
100
AcDbSpline
 70
8
 71
3
 72
8
 73
4
 74
0
 40
0
 40
0
 40
0
 40
0
 40
1
 40
1
 40
1
 40
1
 10
-63.213126
 20
23.354476
 30
0.0
 10
-62.784074
 20
22.145102
 30
0.0
 10
-68.336634
 20
18.421172
 30
0.0
 10
-76.661592
 20
14.334888
 30
0.0
  0
SPLINE
  5
1da
100
AcDbEntity
  8
Layer_1
 62
7
100
AcDbSpline
 70
8
 71
3
 72
8
 73
4
 74
0
 40
0
 40
0
 40
0
 40
0
 40
1
 40
1
 40
1
 40
1
 10
-76.661592
 20
14.334888
 30
0.0
 10
-81.665563
 20
11.878696
 30
0.0
 10
-89.892924
 20
10.885011
 30
0.0
 10
-95.383519
 20
12.073663
 30
0.0
  0
LWPOLYLINE
  5
1db
100
AcDbEntity
  8
Layer_1
 62
7
100
AcDbPolyline
 90
3
 70
0
 10
-83.035945
 20
49.473836
 30
0.0
 10
-85.633500
 20
50.219121
 30
0.0
 10
-82.258515
 20
50.384665
 30
0.0
  0
SPLINE
  5
1dc
100
AcDbEntity
  8
Layer_1
 62
7
100
AcDbSpline
 70
8
 71
3
 72
8
 73
4
 74
0
 40
0
 40
0
 40
0
 40
0
 40
1
 40
1
 40
1
 40
1
 10
189.992112
 20
12.828019
 30
0.0
 10
189.992112
 20
13.226003
 30
0.0
 10
190.652357
 20
13.904986
 30
0.0
 10
191.459296
 20
14.336844
 30
0.0
  0
SPLINE
  5
1dd
100
AcDbEntity
  8
Layer_1
 62
7
100
AcDbSpline
 70
8
 71
3
 72
8
 73
4
 74
0
 40
0
 40
0
 40
0
 40
0
 40
1
 40
1
 40
1
 40
1
 10
191.459296
 20
14.336844
 30
0.0
 10
193.940575
 20
15.664791
 30
0.0
 10
194.685718
 20
20.023852
 30
0.0
 10
194.859709
 20
34.229424
 30
0.0
  0
SPLINE
  5
1de
100
AcDbEntity
  8
Layer_1
 62
7
100
AcDbSpline
 70
8
 71
3
 72
8
 73
4
 74
0
 40
0
 40
0
 40
0
 40
0
 40
1
 40
1
 40
1
 40
1
 10
194.859709
 20
34.229424
 30
0.0
 10
195.037441
 20
48.740258
 30
0.0
 10
194.214203
 20
71.882306
 30
0.0
 10
193.494713
 20
72.601824
 30
0.0
  0
SPLINE
  5
1df
100
AcDbEntity
  8
Layer_1
 62
7
100
AcDbSpline
 70
8
 71
3
 72
8
 73
4
 74
0
 40
0
 40
0
 40
0
 40
0
 40
1
 40
1
 40
1
 40
1
 10
193.494713
 20
72.601824
 30
0.0
 10
192.588647
 20
73.507890
 30
0.0
 10
181.592773
 20
72.782391
 30
0.0
 10
178.702370
 20
71.625997
 30
0.0
  0
SPLINE
  5
1e0
100
AcDbEntity
  8
Layer_1
 62
7
100
AcDbSpline
 70
8
 71
3
 72
8
 73
4
 74
0
 40
0
 40
0
 40
0
 40
0
 40
1
 40
1
 40
1
 40
1
 10
178.702370
 20
71.625997
 30
0.0
 10
177.059211
 20
70.968557
 30
0.0
 10
174.880956
 20
69.372850
 30
0.0
 10
173.861787
 20
68.080025
 30
0.0
  0
LWPOLYLINE
  5
1e1
100
AcDbEntity
  8
Layer_1
 62
7
100
AcDbPolyline
 90
2
 70
0
 10
-95.383519
 20
12.073663
 30
0.0
 10
-95.382924
 20
12.073606
 30
0.0
  0
SPLINE
  5
1e2
100
AcDbEntity
  8
Layer_1
 62
7
100
AcDbSpline
 70
8
 71
3
 72
8
 73
4
 74
0
 40
0
 40
0
 40
0
 40
0
 40
1
 40
1
 40
1
 40
1
 10
225.054241
 20
68.885943
 30
0.0
 10
221.764975
 20
71.893559
 30
0.0
 10
218.464257
 20
72.976280
 30
0.0
 10
211.277438
 20
73.405049
 30
0.0
  0
LWPOLYLINE
  5
1e3
100
AcDbEntity
  8
Layer_1
 62
7
100
AcDbPolyline
 90
9
 70
0
 10
173.861787
 20
68.080025
 30
0.0
 10
172.008751
 20
65.729424
 30
0.0
 10
172.000247
 20
71.916917
 30
0.0
 10
171.991743
 20
78.104409
 30
0.0
 10
199.366739
 20
78.104409
 30
0.0
 10
226.741734
 20
78.104409
 30
0.0
 10
226.741734
 20
72.723685
 30
0.0
 10
226.741734
 20
67.342932
 30
0.0
 10
225.054241
 20
68.885943
 30
0.0
  0
SPLINE
  5
1e4
100
AcDbEntity
  8
Layer_1
 62
7
100
AcDbSpline
 70
8
 71
3
 72
8
 73
4
 74
0
 40
0
 40
0
 40
0
 40
0
 40
1
 40
1
 40
1
 40
1
 10
204.101986
 20
55.527109
 30
0.0
 10
203.838931
 20
21.046252
 30
0.0
 10
204.107655
 20
17.564343
 30
0.0
 10
207.269844
 20
14.703846
 30
0.0
  0
SPLINE
  5
1e5
100
AcDbEntity
  8
Layer_1
 62
7
100
AcDbSpline
 70
8
 71
3
 72
8
 73
4
 74
0
 40
0
 40
0
 40
0
 40
0
 40
1
 40
1
 40
1
 40
1
 10
207.269844
 20
14.703846
 30
0.0
 10
208.079306
 20
13.971288
 30
0.0
 10
208.741592
 20
13.086737
 30
0.0
 10
208.741592
 20
12.738161
 30
0.0
  0
SPLINE
  5
1e6
100
AcDbEntity
  8
Layer_1
 62
7
100
AcDbSpline
 70
8
 71
3
 72
8
 73
4
 74
0
 40
0
 40
0
 40
0
 40
0
 40
1
 40
1
 40
1
 40
1
 10
208.741592
 20
12.738161
 30
0.0
 10
208.741592
 20
12.389613
 30
0.0
 10
204.522846
 20
12.104419
 30
0.0
 10
199.366597
 20
12.104419
 30
0.0
  0
SPLINE
  5
1e7
100
AcDbEntity
  8
Layer_1
 62
7
100
AcDbSpline
 70
8
 71
3
 72
8
 73
4
 74
0
 40
0
 40
0
 40
0
 40
0
 40
1
 40
1
 40
1
 40
1
 10
199.366597
 20
12.104419
 30
0.0
 10
193.844509
 20
12.104419
 30
0.0
 10
189.991602
 20
12.401802
 30
0.0
 10
189.991602
 20
12.828019
 30
0.0
  0
LWPOLYLINE
  5
1e8
100
AcDbEntity
  8
Layer_1
 62
7
100
AcDbPolyline
 90
3
 70
0
 10
211.277438
 20
73.405049
 30
0.0
 10
204.241734
 20
73.824803
 30
0.0
 10
204.101986
 20
55.527109
 30
0.0
  0
SPLINE
  5
1e9
100
AcDbEntity
  8
Layer_1
 62
7
100
AcDbSpline
 70
8
 71
3
 72
8
 73
4
 74
0
 40
0
 40
0
 40
0
 40
0
 40
1
 40
1
 40
1
 40
1
 10
255.242112
 20
13.318299
 30
0.0
 10
252.560877
 20
13.828365
 30
0.0
 10
248.173356
 20
15.031502
 30
0.0
 10
245.492121
 20
15.991909
 30
0.0
  0
LWPOLYLINE
  5
1ea
100
AcDbEntity
  8
Layer_1
 62
7
100
AcDbPolyline
 90
2
 70
0
 10
189.991602
 20
12.828019
 30
0.0
 10
189.992112
 20
12.828019
 30
0.0
  0
SPLINE
  5
1eb
100
AcDbEntity
  8
Layer_1
 62
7
100
AcDbSpline
 70
8
 71
3
 72
8
 73
4
 74
0
 40
0
 40
0
 40
0
 40
0
 40
1
 40
1
 40
1
 40
1
 10
240.374169
 20
23.862869
 30
0.0
 10
240.240657
 20
27.231506
 30
0.0
 10
240.245476
 20
30.942028
 30
0.0
 10
240.385507
 20
32.108513
 30
0.0
  0
SPLINE
  5
1ec
100
AcDbEntity
  8
Layer_1
 62
7
100
AcDbSpline
 70
8
 71
3
 72
8
 73
4
 74
0
 40
0
 40
0
 40
0
 40
0
 40
1
 40
1
 40
1
 40
1
 10
240.385507
 20
32.108513
 30
0.0
 10
240.627019
 20
34.124258
 30
0.0
 10
240.721243
 20
34.051181
 30
0.0
 10
242.288376
 20
30.633931
 30
0.0
  0
SPLINE
  5
1ed
100
AcDbEntity
  8
Layer_1
 62
7
100
AcDbSpline
 70
8
 71
3
 72
8
 73
4
 74
0
 40
0
 40
0
 40
0
 40
0
 40
1
 40
1
 40
1
 40
1
 10
242.288376
 20
30.633931
 30
0.0
 10
246.848329
 20
20.690731
 30
0.0
 10
253.224808
 20
16.455543
 30
0.0
 10
263.560975
 20
16.504980
 30
0.0
  0
SPLINE
  5
1ee
100
AcDbEntity
  8
Layer_1
 62
7
100
AcDbSpline
 70
8
 71
3
 72
8
 73
4
 74
0
 40
0
 40
0
 40
0
 40
0
 40
1
 40
1
 40
1
 40
1
 10
263.560975
 20
16.504980
 30
0.0
 10
268.569369
 20
16.527657
 30
0.0
 10
272.462017
 20
18.221159
 30
0.0
 10
276.123444
 20
21.966123
 30
0.0
  0
SPLINE
  5
1ef
100
AcDbEntity
  8
Layer_1
 62
7
100
AcDbSpline
 70
8
 71
3
 72
8
 73
4
 74
0
 40
0
 40
0
 40
0
 40
0
 40
1
 40
1
 40
1
 40
1
 10
276.123444
 20
21.966123
 30
0.0
 10
278.925888
 20
24.832517
 30
0.0
 10
279.599400
 20
26.864079
 30
0.0
 10
278.990717
 20
30.614825
 30
0.0
  0
SPLINE
  5
1f0
100
AcDbEntity
  8
Layer_1
 62
7
100
AcDbSpline
 70
8
 71
3
 72
8
 73
4
 74
0
 40
0
 40
0
 40
0
 40
0
 40
1
 40
1
 40
1
 40
1
 10
278.990717
 20
30.614825
 30
0.0
 10
277.967551
 20
36.919843
 30
0.0
 10
275.215564
 20
38.953928
 30
0.0
 10
257.341507
 20
46.616485
 30
0.0
  0
SPLINE
  5
1f1
100
AcDbEntity
  8
Layer_1
 62
7
100
AcDbSpline
 70
8
 71
3
 72
8
 73
4
 74
0
 40
0
 40
0
 40
0
 40
0
 40
1
 40
1
 40
1
 40
1
 10
257.341507
 20
46.616485
 30
0.0
 10
245.760506
 20
51.581197
 30
0.0
 10
242.492414
 20
54.973276
 30
0.0
 10
242.492414
 20
62.028964
 30
0.0
  0
SPLINE
  5
1f2
100
AcDbEntity
  8
Layer_1
 62
7
100
AcDbSpline
 70
8
 71
3
 72
8
 73
4
 74
0
 40
0
 40
0
 40
0
 40
0
 40
1
 40
1
 40
1
 40
1
 10
242.492414
 20
62.028964
 30
0.0
 10
242.492414
 20
68.400312
 30
0.0
 10
245.943482
 20
73.287553
 30
0.0
 10
252.549510
 20
76.271386
 30
0.0
  0
SPLINE
  5
1f3
100
AcDbEntity
  8
Layer_1
 62
7
100
AcDbSpline
 70
8
 71
3
 72
8
 73
4
 74
0
 40
0
 40
0
 40
0
 40
0
 40
1
 40
1
 40
1
 40
1
 10
252.549510
 20
76.271386
 30
0.0
 10
258.066383
 20
78.763266
 30
0.0
 10
262.451013
 20
79.207937
 30
0.0
 10
267.854584
 20
77.823609
 30
0.0
  0
SPLINE
  5
1f4
100
AcDbEntity
  8
Layer_1
 62
7
100
AcDbSpline
 70
8
 71
3
 72
8
 73
4
 74
0
 40
0
 40
0
 40
0
 40
0
 40
1
 40
1
 40
1
 40
1
 10
267.854584
 20
77.823609
 30
0.0
 10
270.366987
 20
77.179975
 30
0.0
 10
274.632024
 20
76.426980
 30
0.0
 10
277.332506
 20
76.150318
 30
0.0
  0
LWPOLYLINE
  5
1f5
100
AcDbEntity
  8
Layer_1
 62
7
100
AcDbPolyline
 90
3
 70
0
 10
245.492121
 20
15.991909
 30
0.0
 10
240.617098
 20
17.738079
 30
0.0
 10
240.374169
 20
23.862869
 30
0.0
  0
SPLINE
  5
1f6
100
AcDbEntity
  8
Layer_1
 62
7
100
AcDbSpline
 70
8
 71
3
 72
8
 73
4
 74
0
 40
0
 40
0
 40
0
 40
0
 40
1
 40
1
 40
1
 40
1
 10
282.219746
 20
69.188343
 30
0.0
 10
282.202739
 20
64.069795
 30
0.0
 10
282.025573
 20
63.040706
 30
0.0
 10
281.370969
 20
64.229414
 30
0.0
  0
SPLINE
  5
1f7
100
AcDbEntity
  8
Layer_1
 62
7
100
AcDbSpline
 70
8
 71
3
 72
8
 73
4
 74
0
 40
0
 40
0
 40
0
 40
0
 40
1
 40
1
 40
1
 40
1
 10
281.370969
 20
64.229414
 30
0.0
 10
276.686121
 20
72.737490
 30
0.0
 10
264.282817
 20
76.893704
 30
0.0
 10
255.490540
 20
72.901701
 30
0.0
  0
SPLINE
  5
1f8
100
AcDbEntity
  8
Layer_1
 62
7
100
AcDbSpline
 70
8
 71
3
 72
8
 73
4
 74
0
 40
0
 40
0
 40
0
 40
0
 40
1
 40
1
 40
1
 40
1
 10
255.490540
 20
72.901701
 30
0.0
 10
251.897230
 20
71.270220
 30
0.0
 10
250.742509
 20
69.544261
 30
0.0
 10
250.742509
 20
65.804825
 30
0.0
  0
SPLINE
  5
1f9
100
AcDbEntity
  8
Layer_1
 62
7
100
AcDbSpline
 70
8
 71
3
 72
8
 73
4
 74
0
 40
0
 40
0
 40
0
 40
0
 40
1
 40
1
 40
1
 40
1
 10
250.742509
 20
65.804825
 30
0.0
 10
250.742509
 20
61.110000
 30
0.0
 10
253.790065
 20
58.662510
 30
0.0
 10
265.748357
 20
53.753471
 30
0.0
  0
SPLINE
  5
1fa
100
AcDbEntity
  8
Layer_1
 62
7
100
AcDbSpline
 70
8
 71
3
 72
8
 73
4
 74
0
 40
0
 40
0
 40
0
 40
0
 40
1
 40
1
 40
1
 40
1
 10
265.748357
 20
53.753471
 30
0.0
 10
277.893765
 20
48.767641
 30
0.0
 10
281.414962
 20
46.290756
 30
0.0
 10
284.190350
 20
40.781055
 30
0.0
  0
SPLINE
  5
1fb
100
AcDbEntity
  8
Layer_1
 62
7
100
AcDbSpline
 70
8
 71
3
 72
8
 73
4
 74
0
 40
0
 40
0
 40
0
 40
0
 40
1
 40
1
 40
1
 40
1
 10
284.190350
 20
40.781055
 30
0.0
 10
286.784702
 20
35.630617
 30
0.0
 10
286.935250
 20
28.142504
 30
0.0
 10
284.538869
 20
23.445156
 30
0.0
  0
SPLINE
  5
1fc
100
AcDbEntity
  8
Layer_1
 62
7
100
AcDbSpline
 70
8
 71
3
 72
8
 73
4
 74
0
 40
0
 40
0
 40
0
 40
0
 40
1
 40
1
 40
1
 40
1
 10
284.538869
 20
23.445156
 30
0.0
 10
280.341170
 20
15.217087
 30
0.0
 10
267.888317
 20
10.912507
 30
0.0
 10
255.242537
 20
13.318299
 30
0.0
  0
LWPOLYLINE
  5
1fd
100
AcDbEntity
  8
Layer_1
 62
7
100
AcDbPolyline
 90
3
 70
0
 10
277.332506
 20
76.150318
 30
0.0
 10
282.242424
 20
75.647282
 30
0.0
 10
282.219746
 20
69.188343
 30
0.0
  0
SPLINE
  5
1fe
100
AcDbEntity
  8
Layer_1
 62
7
100
AcDbSpline
 70
8
 71
3
 72
8
 73
4
 74
0
 40
0
 40
0
 40
0
 40
0
 40
1
 40
1
 40
1
 40
1
 10
-181.789302
 20
13.608935
 30
0.0
 10
-188.711734
 20
14.571921
 30
0.0
 10
-192.783305
 20
16.722170
 30
0.0
 10
-198.440889
 20
22.402828
 30
0.0
  0
SPLINE
  5
1ff
100
AcDbEntity
  8
Layer_1
 62
7
100
AcDbSpline
 70
8
 71
3
 72
8
 73
4
 74
0
 40
0
 40
0
 40
0
 40
0
 40
1
 40
1
 40
1
 40
1
 10
-198.440889
 20
22.402828
 30
0.0
 10
-209.869997
 20
33.878580
 30
0.0
 10
-212.145483
 20
48.457587
 30
0.0
 10
-204.836066
 20
63.376413
 30
0.0
  0
SPLINE
  5
200
100
AcDbEntity
  8
Layer_1
 62
7
100
AcDbSpline
 70
8
 71
3
 72
8
 73
4
 74
0
 40
0
 40
0
 40
0
 40
0
 40
1
 40
1
 40
1
 40
1
 10
-204.836066
 20
63.376413
 30
0.0
 10
-200.964404
 20
71.278583
 30
0.0
 10
-191.542524
 20
77.754132
 30
0.0
 10
-181.126874
 20
79.671402
 30
0.0
  0
SPLINE
  5
201
100
AcDbEntity
  8
Layer_1
 62
7
100
AcDbSpline
 70
8
 71
3
 72
8
 73
4
 74
0
 40
0
 40
0
 40
0
 40
0
 40
1
 40
1
 40
1
 40
1
 10
-181.126874
 20
79.671402
 30
0.0
 10
-165.195853
 20
82.603899
 30
0.0
 10
-147.976401
 20
72.107858
 30
0.0
 10
-142.462505
 20
56.103704
 30
0.0
  0
SPLINE
  5
202
100
AcDbEntity
  8
Layer_1
 62
7
100
AcDbSpline
 70
8
 71
3
 72
8
 73
4
 74
0
 40
0
 40
0
 40
0
 40
0
 40
1
 40
1
 40
1
 40
1
 10
-142.462505
 20
56.103704
 30
0.0
 10
-140.209557
 20
49.564488
 30
0.0
 10
-141.529283
 20
37.413156
 30
0.0
 10
-145.293863
 20
30.033978
 30
0.0
  0
SPLINE
  5
203
100
AcDbEntity
  8
Layer_1
 62
7
100
AcDbSpline
 70
8
 71
3
 72
8
 73
4
 74
0
 40
0
 40
0
 40
0
 40
0
 40
1
 40
1
 40
1
 40
1
 10
-145.293863
 20
30.033978
 30
0.0
 10
-147.960556
 20
24.806806
 30
0.0
 10
-158.185179
 20
16.528054
 30
0.0
 10
-164.168946
 20
14.751071
 30
0.0
  0
SPLINE
  5
204
100
AcDbEntity
  8
Layer_1
 62
7
100
AcDbSpline
 70
8
 71
3
 72
8
 73
4
 74
0
 40
0
 40
0
 40
0
 40
0
 40
1
 40
1
 40
1
 40
1
 10
-164.168946
 20
14.751071
 30
0.0
 10
-169.195623
 20
13.258318
 30
0.0
 10
-176.067003
 20
12.812910
 30
0.0
 10
-181.789302
 20
13.608935
 30
0.0
  0
LWPOLYLINE
  5
205
100
AcDbEntity
  8
Layer_1
 62
7
100
AcDbPolyline
 90
2
 70
0
 10
255.242537
 20
13.318299
 30
0.0
 10
255.242112
 20
13.318299
 30
0.0
  0
SPLINE
  5
206
100
AcDbEntity
  8
Layer_1
 62
7
100
AcDbSpline
 70
8
 71
3
 72
8
 73
4
 74
0
 40
0
 40
0
 40
0
 40
0
 40
1
 40
1
 40
1
 40
1
 10
-165.138452
 20
19.615096
 30
0.0
 10
-160.495727
 20
21.926608
 30
0.0
 10
-157.365003
 20
25.982306
 30
0.0
 10
-154.973299
 20
32.783386
 30
0.0
  0
SPLINE
  5
207
100
AcDbEntity
  8
Layer_1
 62
7
100
AcDbSpline
 70
8
 71
3
 72
8
 73
4
 74
0
 40
0
 40
0
 40
0
 40
0
 40
1
 40
1
 40
1
 40
1
 10
-154.973299
 20
32.783386
 30
0.0
 10
-153.404493
 20
37.244438
 30
0.0
 10
-153.149148
 20
39.305480
 30
0.0
 10
-153.168197
 20
47.354400
 30
0.0
  0
SPLINE
  5
208
100
AcDbEntity
  8
Layer_1
 62
7
100
AcDbSpline
 70
8
 71
3
 72
8
 73
4
 74
0
 40
0
 40
0
 40
0
 40
0
 40
1
 40
1
 40
1
 40
1
 10
-153.168197
 20
47.354400
 30
0.0
 10
-153.196543
 20
59.023134
 30
0.0
 10
-154.691989
 20
63.522312
 30
0.0
 10
-160.542896
 20
69.531449
 30
0.0
  0
SPLINE
  5
209
100
AcDbEntity
  8
Layer_1
 62
7
100
AcDbSpline
 70
8
 71
3
 72
8
 73
4
 74
0
 40
0
 40
0
 40
0
 40
0
 40
1
 40
1
 40
1
 40
1
 10
-160.542896
 20
69.531449
 30
0.0
 10
-165.198773
 20
74.313213
 30
0.0
 10
-170.785293
 20
76.342507
 30
0.0
 10
-177.017346
 20
75.515783
 30
0.0
  0
SPLINE
  5
20a
100
AcDbEntity
  8
Layer_1
 62
7
100
AcDbSpline
 70
8
 71
3
 72
8
 73
4
 74
0
 40
0
 40
0
 40
0
 40
0
 40
1
 40
1
 40
1
 40
1
 10
-177.017346
 20
75.515783
 30
0.0
 10
-189.636934
 20
73.841754
 30
0.0
 10
-196.656990
 20
65.101861
 30
0.0
 10
-197.528672
 20
49.979424
 30
0.0
  0
SPLINE
  5
20b
100
AcDbEntity
  8
Layer_1
 62
7
100
AcDbSpline
 70
8
 71
3
 72
8
 73
4
 74
0
 40
0
 40
0
 40
0
 40
0
 40
1
 40
1
 40
1
 40
1
 10
-197.528672
 20
49.979424
 30
0.0
 10
-198.149063
 20
39.216586
 30
0.0
 10
-194.550310
 20
27.778876
 30
0.0
 10
-188.814489
 20
22.283603
 30
0.0
  0
SPLINE
  5
20c
100
AcDbEntity
  8
Layer_1
 62
7
100
AcDbSpline
 70
8
 71
3
 72
8
 73
4
 74
0
 40
0
 40
0
 40
0
 40
0
 40
1
 40
1
 40
1
 40
1
 10
-188.814489
 20
22.283603
 30
0.0
 10
-183.451567
 20
17.145609
 30
0.0
 10
-172.563324
 20
15.918406
 30
0.0
 10
-165.138452
 20
19.615096
 30
0.0
  0
LWPOLYLINE
  5
20d
100
AcDbEntity
  8
Layer_1
 62
7
100
AcDbPolyline
 90
1
 70
1
 10
-181.789302
 20
13.608935
 30
0.0
  0
SPLINE
  5
20e
100
AcDbEntity
  8
Layer_1
 62
7
100
AcDbSpline
 70
8
 71
3
 72
8
 73
4
 74
0
 40
0
 40
0
 40
0
 40
0
 40
1
 40
1
 40
1
 40
1
 10
30.992216
 20
13.650860
 30
0.0
 10
30.992159
 20
13.882734
 30
0.0
 10
31.971699
 20
14.796567
 30
0.0
 10
33.168969
 20
15.681742
 30
0.0
  0
SPLINE
  5
20f
100
AcDbEntity
  8
Layer_1
 62
7
100
AcDbSpline
 70
8
 71
3
 72
8
 73
4
 74
0
 40
0
 40
0
 40
0
 40
0
 40
1
 40
1
 40
1
 40
1
 10
33.168969
 20
15.681742
 30
0.0
 10
35.827866
 20
17.647569
 30
0.0
 10
39.346682
 20
23.688794
 30
0.0
 10
41.351230
 20
29.729424
 30
0.0
  0
SPLINE
  5
210
100
AcDbEntity
  8
Layer_1
 62
7
100
AcDbSpline
 70
8
 71
3
 72
8
 73
4
 74
0
 40
0
 40
0
 40
0
 40
0
 40
1
 40
1
 40
1
 40
1
 10
41.351230
 20
29.729424
 30
0.0
 10
42.172569
 20
32.204409
 30
0.0
 10
44.006811
 20
36.760649
 30
0.0
 10
45.427337
 20
39.854409
 30
0.0
  0
SPLINE
  5
211
100
AcDbEntity
  8
Layer_1
 62
7
100
AcDbSpline
 70
8
 71
3
 72
8
 73
4
 74
0
 40
0
 40
0
 40
0
 40
0
 40
1
 40
1
 40
1
 40
1
 10
45.427337
 20
39.854409
 30
0.0
 10
46.847863
 20
42.948170
 30
0.0
 10
50.402424
 20
51.891902
 30
0.0
 10
53.326389
 20
59.729414
 30
0.0
  0
SPLINE
  5
212
100
AcDbEntity
  8
Layer_1
 62
7
100
AcDbSpline
 70
8
 71
3
 72
8
 73
4
 74
0
 40
0
 40
0
 40
0
 40
0
 40
1
 40
1
 40
1
 40
1
 10
53.326389
 20
59.729414
 30
0.0
 10
56.250354
 20
67.566926
 30
0.0
 10
59.319737
 20
75.489194
 30
0.0
 10
60.147227
 20
77.334520
 30
0.0
  0
SPLINE
  5
213
100
AcDbEntity
  8
Layer_1
 62
7
100
AcDbSpline
 70
8
 71
3
 72
8
 73
4
 74
0
 40
0
 40
0
 40
0
 40
0
 40
1
 40
1
 40
1
 40
1
 10
60.147227
 20
77.334520
 30
0.0
 10
61.612483
 20
80.601902
 30
0.0
 10
61.670282
 20
80.641106
 30
0.0
 10
62.358506
 20
78.834501
 30
0.0
  0
SPLINE
  5
214
100
AcDbEntity
  8
Layer_1
 62
7
100
AcDbSpline
 70
8
 71
3
 72
8
 73
4
 74
0
 40
0
 40
0
 40
0
 40
0
 40
1
 40
1
 40
1
 40
1
 10
62.358506
 20
78.834501
 30
0.0
 10
62.747192
 20
77.814198
 30
0.0
 10
66.284008
 20
69.048170
 30
0.0
 10
70.218128
 20
59.354419
 30
0.0
  0
SPLINE
  5
215
100
AcDbEntity
  8
Layer_1
 62
7
100
AcDbSpline
 70
8
 71
3
 72
8
 73
4
 74
0
 40
0
 40
0
 40
0
 40
0
 40
1
 40
1
 40
1
 40
1
 10
70.218128
 20
59.354419
 30
0.0
 10
76.869227
 20
42.966000
 30
0.0
 10
80.052449
 20
34.687191
 30
0.0
 10
84.313063
 20
22.696696
 30
0.0
  0
SPLINE
  5
216
100
AcDbEntity
  8
Layer_1
 62
7
100
AcDbSpline
 70
8
 71
3
 72
8
 73
4
 74
0
 40
0
 40
0
 40
0
 40
0
 40
1
 40
1
 40
1
 40
1
 10
84.313063
 20
22.696696
 30
0.0
 10
85.369167
 20
19.724598
 30
0.0
 10
86.998663
 20
16.956283
 30
0.0
 10
88.617359
 20
15.384189
 30
0.0
  0
LWPOLYLINE
  5
217
100
AcDbEntity
  8
Layer_1
 62
7
100
AcDbPolyline
 90
1
 70
1
 10
-165.138452
 20
19.615096
 30
0.0
  0
SPLINE
  5
218
100
AcDbEntity
  8
Layer_1
 62
7
100
AcDbSpline
 70
8
 71
3
 72
8
 73
4
 74
0
 40
0
 40
0
 40
0
 40
0
 40
1
 40
1
 40
1
 40
1
 10
74.991416
 20
16.791902
 30
0.0
 10
75.372874
 20
20.633754
 30
0.0
 10
74.675693
 20
23.082888
 30
0.0
 10
69.974263
 20
34.416907
 30
0.0
  0
SPLINE
  5
219
100
AcDbEntity
  8
Layer_1
 62
7
100
AcDbSpline
 70
8
 71
3
 72
8
 73
4
 74
0
 40
0
 40
0
 40
0
 40
0
 40
1
 40
1
 40
1
 40
1
 10
69.974263
 20
34.416907
 30
0.0
 10
69.299362
 20
36.043909
 30
0.0
 10
68.926323
 20
36.104400
 30
0.0
 10
59.569356
 20
36.104400
 30
0.0
  0
LWPOLYLINE
  5
21a
100
AcDbEntity
  8
Layer_1
 62
7
100
AcDbPolyline
 90
5
 70
0
 10
88.617359
 20
15.384189
 30
0.0
 10
91.222200
 20
12.854409
 30
0.0
 10
82.911359
 20
12.854409
 30
0.0
 10
74.600490
 20
12.854409
 30
0.0
 10
74.991416
 20
16.791902
 30
0.0
  0
SPLINE
  5
21b
100
AcDbEntity
  8
Layer_1
 62
7
100
AcDbSpline
 70
8
 71
3
 72
8
 73
4
 74
0
 40
0
 40
0
 40
0
 40
0
 40
1
 40
1
 40
1
 40
1
 10
48.376587
 20
33.666917
 30
0.0
 10
46.560969
 20
30.692466
 30
0.0
 10
43.742112
 20
21.705619
 30
0.0
 10
43.742112
 20
18.891638
 30
0.0
  0
SPLINE
  5
21c
100
AcDbEntity
  8
Layer_1
 62
7
100
AcDbSpline
 70
8
 71
3
 72
8
 73
4
 74
0
 40
0
 40
0
 40
0
 40
0
 40
1
 40
1
 40
1
 40
1
 10
43.742112
 20
18.891638
 30
0.0
 10
43.742112
 20
17.761521
 30
0.0
 10
44.417126
 20
16.226022
 30
0.0
 10
45.242121
 20
15.479405
 30
0.0
  0
SPLINE
  5
21d
100
AcDbEntity
  8
Layer_1
 62
7
100
AcDbSpline
 70
8
 71
3
 72
8
 73
4
 74
0
 40
0
 40
0
 40
0
 40
0
 40
1
 40
1
 40
1
 40
1
 10
45.242121
 20
15.479405
 30
0.0
 10
46.067117
 20
14.732787
 30
0.0
 10
46.742102
 20
13.874882
 30
0.0
 10
46.742102
 20
13.572935
 30
0.0
  0
SPLINE
  5
21e
100
AcDbEntity
  8
Layer_1
 62
7
100
AcDbSpline
 70
8
 71
3
 72
8
 73
4
 74
0
 40
0
 40
0
 40
0
 40
0
 40
1
 40
1
 40
1
 40
1
 10
46.742102
 20
13.572935
 30
0.0
 10
46.742102
 20
13.270989
 30
0.0
 10
43.198398
 20
13.070183
 30
0.0
 10
38.867202
 20
13.126677
 30
0.0
  0
SPLINE
  5
21f
100
AcDbEntity
  8
Layer_1
 62
7
100
AcDbSpline
 70
8
 71
3
 72
8
 73
4
 74
0
 40
0
 40
0
 40
0
 40
0
 40
1
 40
1
 40
1
 40
1
 10
38.867202
 20
13.126677
 30
0.0
 10
34.536005
 20
13.183087
 30
0.0
 10
30.992272
 20
13.419071
 30
0.0
 10
30.992216
 20
13.650860
 30
0.0
  0
LWPOLYLINE
  5
220
100
AcDbEntity
  8
Layer_1
 62
7
100
AcDbPolyline
 90
3
 70
0
 10
59.569356
 20
36.104400
 30
0.0
 10
49.864465
 20
36.104400
 30
0.0
 10
48.376587
 20
33.666917
 30
0.0
  0
SPLINE
  5
221
100
AcDbEntity
  8
Layer_1
 62
7
100
AcDbSpline
 70
8
 71
3
 72
8
 73
4
 74
0
 40
0
 40
0
 40
0
 40
0
 40
1
 40
1
 40
1
 40
1
 10
67.013759
 20
41.541902
 30
0.0
 10
67.049759
 20
43.095430
 30
0.0
 10
59.919888
 20
62.354409
 30
0.0
 10
59.308909
 20
62.354409
 30
0.0
  0
SPLINE
  5
222
100
AcDbEntity
  8
Layer_1
 62
7
100
AcDbSpline
 70
8
 71
3
 72
8
 73
4
 74
0
 40
0
 40
0
 40
0
 40
0
 40
1
 40
1
 40
1
 40
1
 10
59.308909
 20
62.354409
 30
0.0
 10
58.997183
 20
62.354409
 30
0.0
 10
58.742121
 20
61.987238
 30
0.0
 10
58.742121
 20
61.538513
 30
0.0
  0
SPLINE
  5
223
100
AcDbEntity
  8
Layer_1
 62
7
100
AcDbSpline
 70
8
 71
3
 72
8
 73
4
 74
0
 40
0
 40
0
 40
0
 40
0
 40
1
 40
1
 40
1
 40
1
 10
58.742121
 20
61.538513
 30
0.0
 10
58.742121
 20
61.089761
 30
0.0
 10
57.182896
 20
56.786627
 30
0.0
 10
55.277164
 20
51.976006
 30
0.0
  0
SPLINE
  5
224
100
AcDbEntity
  8
Layer_1
 62
7
100
AcDbSpline
 70
8
 71
3
 72
8
 73
4
 74
0
 40
0
 40
0
 40
0
 40
0
 40
1
 40
1
 40
1
 40
1
 10
55.277164
 20
51.976006
 30
0.0
 10
53.371431
 20
47.165386
 30
0.0
 10
51.657406
 20
42.832517
 30
0.0
 10
51.468222
 20
42.347424
 30
0.0
  0
SPLINE
  5
225
100
AcDbEntity
  8
Layer_1
 62
7
100
AcDbSpline
 70
8
 71
3
 72
8
 73
4
 74
0
 40
0
 40
0
 40
0
 40
0
 40
1
 40
1
 40
1
 40
1
 10
51.468222
 20
42.347424
 30
0.0
 10
51.048354
 20
41.270910
 30
0.0
 10
53.459674
 20
40.866038
 30
0.0
 10
61.179605
 20
40.716794
 30
0.0
  0
SPLINE
  5
226
100
AcDbEntity
  8
Layer_1
 62
7
100
AcDbSpline
 70
8
 71
3
 72
8
 73
4
 74
0
 40
0
 40
0
 40
0
 40
0
 40
1
 40
1
 40
1
 40
1
 10
61.179605
 20
40.716794
 30
0.0
 10
65.379586
 20
40.635723
 30
0.0
 10
66.998112
 20
40.864479
 30
0.0
 10
67.013759
 20
41.541902
 30
0.0
  0
LWPOLYLINE
  5
227
100
AcDbEntity
  8
Layer_1
 62
7
100
AcDbPolyline
 90
1
 70
1
 10
30.992216
 20
13.650860
 30
0.0
  0
SPLINE
  5
228
100
AcDbEntity
  8
Layer_1
 62
7
100
AcDbSpline
 70
8
 71
3
 72
8
 73
4
 74
0
 40
0
 40
0
 40
0
 40
0
 40
1
 40
1
 40
1
 40
1
 10
-284.007912
 20
14.828400
 30
0.0
 10
-284.007912
 20
15.089187
 30
0.0
 10
-283.286611
 20
16.469433
 30
0.0
 10
-282.405036
 20
17.895855
 30
0.0
  0
SPLINE
  5
229
100
AcDbEntity
  8
Layer_1
 62
7
100
AcDbSpline
 70
8
 71
3
 72
8
 73
4
 74
0
 40
0
 40
0
 40
0
 40
0
 40
1
 40
1
 40
1
 40
1
 10
-282.405036
 20
17.895855
 30
0.0
 10
-280.214252
 20
21.440608
 30
0.0
 10
-279.622945
 20
29.748841
 30
0.0
 10
-279.903801
 20
53.038687
 30
0.0
  0
SPLINE
  5
22a
100
AcDbEntity
  8
Layer_1
 62
7
100
AcDbSpline
 70
8
 71
3
 72
8
 73
4
 74
0
 40
0
 40
0
 40
0
 40
0
 40
1
 40
1
 40
1
 40
1
 10
-279.903801
 20
53.038687
 30
0.0
 10
-280.139360
 20
72.570869
 30
0.0
 10
-280.759609
 20
76.730598
 30
0.0
 10
-283.599043
 20
77.820208
 30
0.0
  0
SPLINE
  5
22b
100
AcDbEntity
  8
Layer_1
 62
7
100
AcDbSpline
 70
8
 71
3
 72
8
 73
4
 74
0
 40
0
 40
0
 40
0
 40
0
 40
1
 40
1
 40
1
 40
1
 10
-283.599043
 20
77.820208
 30
0.0
 10
-286.402054
 20
78.895814
 30
0.0
 10
-284.118236
 20
79.214230
 30
0.0
 10
-275.124362
 20
79.001773
 30
0.0
  0
LWPOLYLINE
  5
22c
100
AcDbEntity
  8
Layer_1
 62
7
100
AcDbPolyline
 90
1
 70
1
 10
67.013759
 20
41.541902
 30
0.0
  0
SPLINE
  5
22d
100
AcDbEntity
  8
Layer_1
 62
7
100
AcDbSpline
 70
8
 71
3
 72
8
 73
4
 74
0
 40
0
 40
0
 40
0
 40
0
 40
1
 40
1
 40
1
 40
1
 10
-264.320393
 20
53.771499
 30
0.0
 10
-260.917288
 20
53.514397
 30
0.0
 10
-253.914154
 20
53.399650
 30
0.0
 10
-248.757908
 20
53.516665
 30
0.0
  0
LWPOLYLINE
  5
22e
100
AcDbEntity
  8
Layer_1
 62
7
100
AcDbPolyline
 90
7
 70
0
 10
-275.124362
 20
79.001773
 30
0.0
 10
-265.488154
 20
78.774151
 30
0.0
 10
-267.998034
 20
76.264271
 30
0.0
 10
-270.507915
 20
73.754419
 30
0.0
 10
-270.507915
 20
63.996746
 30
0.0
 10
-270.507915
 20
54.239074
 30
0.0
 10
-264.320393
 20
53.771499
 30
0.0
  0
SPLINE
  5
22f
100
AcDbEntity
  8
Layer_1
 62
7
100
AcDbSpline
 70
8
 71
3
 72
8
 73
4
 74
0
 40
0
 40
0
 40
0
 40
0
 40
1
 40
1
 40
1
 40
1
 10
-238.863631
 20
56.354258
 30
0.0
 10
-238.065256
 20
60.390170
 30
0.0
 10
-238.175410
 20
68.402069
 30
0.0
 10
-239.073678
 20
71.637562
 30
0.0
  0
SPLINE
  5
230
100
AcDbEntity
  8
Layer_1
 62
7
100
AcDbSpline
 70
8
 71
3
 72
8
 73
4
 74
0
 40
0
 40
0
 40
0
 40
0
 40
1
 40
1
 40
1
 40
1
 10
-239.073678
 20
71.637562
 30
0.0
 10
-239.517805
 20
73.237124
 30
0.0
 10
-240.697188
 20
75.361833
 30
0.0
 10
-241.694501
 20
76.359146
 30
0.0
  0
SPLINE
  5
231
100
AcDbEntity
  8
Layer_1
 62
7
100
AcDbSpline
 70
8
 71
3
 72
8
 73
4
 74
0
 40
0
 40
0
 40
0
 40
0
 40
1
 40
1
 40
1
 40
1
 10
-241.694501
 20
76.359146
 30
0.0
 10
-242.691820
 20
77.356460
 30
0.0
 10
-243.507798
 20
78.325852
 30
0.0
 10
-243.507798
 20
78.513364
 30
0.0
  0
SPLINE
  5
232
100
AcDbEntity
  8
Layer_1
 62
7
100
AcDbSpline
 70
8
 71
3
 72
8
 73
4
 74
0
 40
0
 40
0
 40
0
 40
0
 40
1
 40
1
 40
1
 40
1
 10
-243.507798
 20
78.513364
 30
0.0
 10
-243.507798
 20
78.700734
 30
0.0
 10
-239.259033
 20
78.854258
 30
0.0
 10
-234.066132
 20
78.854258
 30
0.0
  0
LWPOLYLINE
  5
233
100
AcDbEntity
  8
Layer_1
 62
7
100
AcDbPolyline
 90
3
 70
0
 10
-248.757908
 20
53.516665
 30
0.0
 10
-239.382916
 20
53.729263
 30
0.0
 10
-238.863631
 20
56.354258
 30
0.0
  0
SPLINE
  5
234
100
AcDbEntity
  8
Layer_1
 62
7
100
AcDbSpline
 70
8
 71
3
 72
8
 73
4
 74
0
 40
0
 40
0
 40
0
 40
0
 40
1
 40
1
 40
1
 40
1
 10
-226.566340
 20
76.546460
 30
0.0
 10
-227.634378
 20
75.277162
 30
0.0
 10
-228.729430
 20
73.357313
 30
0.0
 10
-228.999798
 20
72.280091
 30
0.0
  0
SPLINE
  5
235
100
AcDbEntity
  8
Layer_1
 62
7
100
AcDbSpline
 70
8
 71
3
 72
8
 73
4
 74
0
 40
0
 40
0
 40
0
 40
0
 40
1
 40
1
 40
1
 40
1
 10
-228.999798
 20
72.280091
 30
0.0
 10
-229.270224
 20
71.202869
 30
0.0
 10
-229.269090
 20
58.994504
 30
0.0
 10
-228.997548
 20
45.150378
 30
0.0
  0
SPLINE
  5
236
100
AcDbEntity
  8
Layer_1
 62
7
100
AcDbSpline
 70
8
 71
3
 72
8
 73
4
 74
0
 40
0
 40
0
 40
0
 40
0
 40
1
 40
1
 40
1
 40
1
 10
-228.997548
 20
45.150378
 30
0.0
 10
-228.535475
 20
21.600482
 30
0.0
 10
-228.407207
 20
19.848387
 30
0.0
 10
-227.005758
 20
17.947134
 30
0.0
  0
SPLINE
  5
237
100
AcDbEntity
  8
Layer_1
 62
7
100
AcDbSpline
 70
8
 71
3
 72
8
 73
4
 74
0
 40
0
 40
0
 40
0
 40
0
 40
1
 40
1
 40
1
 40
1
 10
-227.005758
 20
17.947134
 30
0.0
 10
-226.181869
 20
16.829461
 30
0.0
 10
-225.507821
 20
15.563849
 30
0.0
 10
-225.507821
 20
15.134627
 30
0.0
  0
SPLINE
  5
238
100
AcDbEntity
  8
Layer_1
 62
7
100
AcDbSpline
 70
8
 71
3
 72
8
 73
4
 74
0
 40
0
 40
0
 40
0
 40
0
 40
1
 40
1
 40
1
 40
1
 10
-225.507821
 20
15.134627
 30
0.0
 10
-225.507821
 20
14.641455
 30
0.0
 10
-228.543755
 20
14.354277
 30
0.0
 10
-233.757799
 20
14.354277
 30
0.0
  0
SPLINE
  5
239
100
AcDbEntity
  8
Layer_1
 62
7
100
AcDbSpline
 70
8
 71
3
 72
8
 73
4
 74
0
 40
0
 40
0
 40
0
 40
0
 40
1
 40
1
 40
1
 40
1
 10
-233.757799
 20
14.354277
 30
0.0
 10
-238.295307
 20
14.354277
 30
0.0
 10
-242.007814
 20
14.503663
 30
0.0
 10
-242.007814
 20
14.686413
 30
0.0
  0
SPLINE
  5
23a
100
AcDbEntity
  8
Layer_1
 62
7
100
AcDbSpline
 70
8
 71
3
 72
8
 73
4
 74
0
 40
0
 40
0
 40
0
 40
0
 40
1
 40
1
 40
1
 40
1
 10
-242.007814
 20
14.686413
 30
0.0
 10
-242.007814
 20
14.868964
 30
0.0
 10
-241.248438
 20
16.303436
 30
0.0
 10
-240.320322
 20
17.873887
 30
0.0
  0
SPLINE
  5
23b
100
AcDbEntity
  8
Layer_1
 62
7
100
AcDbSpline
 70
8
 71
3
 72
8
 73
4
 74
0
 40
0
 40
0
 40
0
 40
0
 40
1
 40
1
 40
1
 40
1
 10
-240.320322
 20
17.873887
 30
0.0
 10
-238.722627
 20
20.577288
 30
0.0
 10
-238.640306
 20
21.443896
 30
0.0
 10
-238.773934
 20
34.156346
 30
0.0
  0
SPLINE
  5
23c
100
AcDbEntity
  8
Layer_1
 62
7
100
AcDbSpline
 70
8
 71
3
 72
8
 73
4
 74
0
 40
0
 40
0
 40
0
 40
0
 40
1
 40
1
 40
1
 40
1
 10
-238.773934
 20
34.156346
 30
0.0
 10
-238.880517
 20
44.295052
 30
0.0
 10
-239.156014
 20
47.736227
 30
0.0
 10
-239.898917
 20
48.207345
 30
0.0
  0
SPLINE
  5
23d
100
AcDbEntity
  8
Layer_1
 62
7
100
AcDbSpline
 70
8
 71
3
 72
8
 73
4
 74
0
 40
0
 40
0
 40
0
 40
0
 40
1
 40
1
 40
1
 40
1
 10
-239.898917
 20
48.207345
 30
0.0
 10
-240.440051
 20
48.550535
 30
0.0
 10
-247.348196
 20
48.836466
 30
0.0
 10
-255.250321
 20
48.842787
 30
0.0
  0
LWPOLYLINE
  5
23e
100
AcDbEntity
  8
Layer_1
 62
7
100
AcDbPolyline
 90
3
 70
0
 10
-234.066132
 20
78.854258
 30
0.0
 10
-224.624441
 20
78.854258
 30
0.0
 10
-226.566340
 20
76.546460
 30
0.0
  0
SPLINE
  5
23f
100
AcDbEntity
  8
Layer_1
 62
7
100
AcDbSpline
 70
8
 71
3
 72
8
 73
4
 74
0
 40
0
 40
0
 40
0
 40
0
 40
1
 40
1
 40
1
 40
1
 10
-270.159650
 20
41.626970
 30
0.0
 10
-271.003241
 20
30.375213
 30
0.0
 10
-270.296563
 20
21.027997
 30
0.0
 10
-268.366312
 20
17.904699
 30
0.0
  0
SPLINE
  5
240
100
AcDbEntity
  8
Layer_1
 62
7
100
AcDbSpline
 70
8
 71
3
 72
8
 73
4
 74
0
 40
0
 40
0
 40
0
 40
0
 40
1
 40
1
 40
1
 40
1
 10
-268.366312
 20
17.904699
 30
0.0
 10
-267.481619
 20
16.473260
 30
0.0
 10
-266.757792
 20
15.088791
 30
0.0
 10
-266.757792
 20
14.828117
 30
0.0
  0
SPLINE
  5
241
100
AcDbEntity
  8
Layer_1
 62
7
100
AcDbSpline
 70
8
 71
3
 72
8
 73
4
 74
0
 40
0
 40
0
 40
0
 40
0
 40
1
 40
1
 40
1
 40
1
 10
-266.757792
 20
14.828117
 30
0.0
 10
-266.757792
 20
14.567329
 30
0.0
 10
-270.639045
 20
14.354135
 30
0.0
 10
-275.382797
 20
14.354135
 30
0.0
  0
SPLINE
  5
242
100
AcDbEntity
  8
Layer_1
 62
7
100
AcDbSpline
 70
8
 71
3
 72
8
 73
4
 74
0
 40
0
 40
0
 40
0
 40
0
 40
1
 40
1
 40
1
 40
1
 10
-275.382797
 20
14.354135
 30
0.0
 10
-280.126548
 20
14.354135
 30
0.0
 10
-284.007770
 20
14.567301
 30
0.0
 10
-284.007770
 20
14.828117
 30
0.0
  0
LWPOLYLINE
  5
243
100
AcDbEntity
  8
Layer_1
 62
7
100
AcDbPolyline
 90
3
 70
0
 10
-255.250321
 20
48.842787
 30
0.0
 10
-269.617808
 20
48.854126
 30
0.0
 10
-270.159650
 20
41.626970
 30
0.0
  0
SPLINE
  5
244
100
AcDbEntity
  8
Layer_1
 62
7
100
AcDbSpline
 70
8
 71
3
 72
8
 73
4
 74
0
 40
0
 40
0
 40
0
 40
0
 40
1
 40
1
 40
1
 40
1
 10
7.238311
 20
15.260117
 30
0.0
 10
6.077523
 20
16.780082
 30
0.0
 10
3.483596
 20
23.278309
 30
0.0
 10
-0.575872
 20
34.836038
 30
0.0
  0
SPLINE
  5
245
100
AcDbEntity
  8
Layer_1
 62
7
100
AcDbSpline
 70
8
 71
3
 72
8
 73
4
 74
0
 40
0
 40
0
 40
0
 40
0
 40
1
 40
1
 40
1
 40
1
 10
-0.575872
 20
34.836038
 30
0.0
 10
-6.663302
 20
52.167600
 30
0.0
 10
-8.955510
 20
57.963515
 30
0.0
 10
-9.471387
 20
57.328526
 30
0.0
  0
SPLINE
  5
246
100
AcDbEntity
  8
Layer_1
 62
7
100
AcDbSpline
 70
8
 71
3
 72
8
 73
4
 74
0
 40
0
 40
0
 40
0
 40
0
 40
1
 40
1
 40
1
 40
1
 10
-9.471387
 20
57.328526
 30
0.0
 10
-9.977598
 20
56.705443
 30
0.0
 10
-11.020152
 20
54.065169
 30
0.0
 10
-16.223167
 20
40.229405
 30
0.0
  0
SPLINE
  5
247
100
AcDbEntity
  8
Layer_1
 62
7
100
AcDbSpline
 70
8
 71
3
 72
8
 73
4
 74
0
 40
0
 40
0
 40
0
 40
0
 40
1
 40
1
 40
1
 40
1
 10
-16.223167
 20
40.229405
 30
0.0
 10
-22.071276
 20
24.678227
 30
0.0
 10
-26.223749
 20
15.020277
 30
0.0
 10
-26.802073
 20
15.624680
 30
0.0
  0
SPLINE
  5
248
100
AcDbEntity
  8
Layer_1
 62
7
100
AcDbSpline
 70
8
 71
3
 72
8
 73
4
 74
0
 40
0
 40
0
 40
0
 40
0
 40
1
 40
1
 40
1
 40
1
 10
-26.802073
 20
15.624680
 30
0.0
 10
-27.450385
 20
16.302189
 30
0.0
 10
-38.611406
 20
44.408211
 30
0.0
 10
-42.827119
 20
55.979405
 30
0.0
  0
SPLINE
  5
249
100
AcDbEntity
  8
Layer_1
 62
7
100
AcDbSpline
 70
8
 71
3
 72
8
 73
4
 74
0
 40
0
 40
0
 40
0
 40
0
 40
1
 40
1
 40
1
 40
1
 10
-42.827119
 20
55.979405
 30
0.0
 10
-47.689500
 20
69.325540
 30
0.0
 10
-49.487289
 20
73.083798
 30
0.0
 10
-52.404678
 20
76.001187
 30
0.0
  0
LWPOLYLINE
  5
24a
100
AcDbEntity
  8
Layer_1
 62
7
100
AcDbPolyline
 90
2
 70
0
 10
-284.007770
 20
14.828117
 30
0.0
 10
-284.007912
 20
14.828400
 30
0.0
  0
SPLINE
  5
24b
100
AcDbEntity
  8
Layer_1
 62
7
100
AcDbSpline
 70
8
 71
3
 72
8
 73
4
 74
0
 40
0
 40
0
 40
0
 40
0
 40
1
 40
1
 40
1
 40
1
 10
-46.257919
 20
78.854400
 30
0.0
 10
-41.307919
 20
78.854400
 30
0.0
 10
-37.257919
 20
78.724290
 30
0.0
 10
-37.257919
 20
78.565153
 30
0.0
  0
SPLINE
  5
24c
100
AcDbEntity
  8
Layer_1
 62
7
100
AcDbSpline
 70
8
 71
3
 72
8
 73
4
 74
0
 40
0
 40
0
 40
0
 40
0
 40
1
 40
1
 40
1
 40
1
 10
-37.257919
 20
78.565153
 30
0.0
 10
-37.257919
 20
78.406129
 30
0.0
 10
-37.766568
 20
77.309178
 30
0.0
 10
-38.388263
 20
76.127641
 30
0.0
  0
SPLINE
  5
24d
100
AcDbEntity
  8
Layer_1
 62
7
100
AcDbSpline
 70
8
 71
3
 72
8
 73
4
 74
0
 40
0
 40
0
 40
0
 40
0
 40
1
 40
1
 40
1
 40
1
 10
-38.388263
 20
76.127641
 30
0.0
 10
-39.711929
 20
73.611978
 30
0.0
 10
-39.339513
 20
71.184161
 30
0.0
 10
-36.765513
 20
65.548687
 30
0.0
  0
SPLINE
  5
24e
100
AcDbEntity
  8
Layer_1
 62
7
100
AcDbSpline
 70
8
 71
3
 72
8
 73
4
 74
0
 40
0
 40
0
 40
0
 40
0
 40
1
 40
1
 40
1
 40
1
 10
-36.765513
 20
65.548687
 30
0.0
 10
-35.117535
 20
61.940665
 30
0.0
 10
-32.002004
 20
53.622680
 30
0.0
 10
-27.294423
 20
40.262457
 30
0.0
  0
SPLINE
  5
24f
100
AcDbEntity
  8
Layer_1
 62
7
100
AcDbSpline
 70
8
 71
3
 72
8
 73
4
 74
0
 40
0
 40
0
 40
0
 40
0
 40
1
 40
1
 40
1
 40
1
 10
-27.294423
 20
40.262457
 30
0.0
 10
-26.283390
 20
37.393143
 30
0.0
 10
-25.142643
 20
34.940976
 30
0.0
 10
-24.759427
 20
34.813247
 30
0.0
  0
SPLINE
  5
250
100
AcDbEntity
  8
Layer_1
 62
7
100
AcDbSpline
 70
8
 71
3
 72
8
 73
4
 74
0
 40
0
 40
0
 40
0
 40
0
 40
1
 40
1
 40
1
 40
1
 10
-24.759427
 20
34.813247
 30
0.0
 10
-24.376183
 20
34.685405
 30
0.0
 10
-23.433267
 20
36.358129
 30
0.0
 10
-22.664029
 20
38.530205
 30
0.0
  0
SPLINE
  5
251
100
AcDbEntity
  8
Layer_1
 62
7
100
AcDbSpline
 70
8
 71
3
 72
8
 73
4
 74
0
 40
0
 40
0
 40
0
 40
0
 40
1
 40
1
 40
1
 40
1
 10
-22.664029
 20
38.530205
 30
0.0
 10
-21.894791
 20
40.702252
 30
0.0
 10
-19.115095
 20
48.009458
 30
0.0
 10
-16.486987
 20
54.768416
 30
0.0
  0
SPLINE
  5
252
100
AcDbEntity
  8
Layer_1
 62
7
100
AcDbSpline
 70
8
 71
3
 72
8
 73
4
 74
0
 40
0
 40
0
 40
0
 40
0
 40
1
 40
1
 40
1
 40
1
 10
-16.486987
 20
54.768416
 30
0.0
 10
-11.079170
 20
68.676151
 30
0.0
 10
-11.067604
 20
69.120057
 30
0.0
 10
-15.947016
 20
75.512438
 30
0.0
  0
SPLINE
  5
253
100
AcDbEntity
  8
Layer_1
 62
7
100
AcDbSpline
 70
8
 71
3
 72
8
 73
4
 74
0
 40
0
 40
0
 40
0
 40
0
 40
1
 40
1
 40
1
 40
1
 10
-15.947016
 20
75.512438
 30
0.0
 10
-18.537706
 20
78.906444
 30
0.0
 10
-18.069394
 20
79.876658
 30
0.0
 10
-14.708616
 20
78.078019
 30
0.0
  0
SPLINE
  5
254
100
AcDbEntity
  8
Layer_1
 62
7
100
AcDbSpline
 70
8
 71
3
 72
8
 73
4
 74
0
 40
0
 40
0
 40
0
 40
0
 40
1
 40
1
 40
1
 40
1
 10
-14.708616
 20
78.078019
 30
0.0
 10
-13.708615
 20
77.542838
 30
0.0
 10
-13.257907
 20
77.542838
 30
0.0
 10
-13.257907
 20
78.078019
 30
0.0
  0
SPLINE
  5
255
100
AcDbEntity
  8
Layer_1
 62
7
100
AcDbSpline
 70
8
 71
3
 72
8
 73
4
 74
0
 40
0
 40
0
 40
0
 40
0
 40
1
 40
1
 40
1
 40
1
 10
-13.257907
 20
78.078019
 30
0.0
 10
-13.257907
 20
78.543411
 30
0.0
 10
-11.029733
 20
78.854400
 30
0.0
 10
-7.695198
 20
78.854400
 30
0.0
  0
LWPOLYLINE
  5
256
100
AcDbEntity
  8
Layer_1
 62
7
100
AcDbPolyline
 90
3
 70
0
 10
-52.404678
 20
76.001187
 30
0.0
 10
-55.257919
 20
78.854400
 30
0.0
 10
-46.257919
 20
78.854400
 30
0.0
  0
SPLINE
  5
257
100
AcDbEntity
  8
Layer_1
 62
7
100
AcDbSpline
 70
8
 71
3
 72
8
 73
4
 74
0
 40
0
 40
0
 40
0
 40
0
 40
1
 40
1
 40
1
 40
1
 10
-2.232099
 20
65.325317
 30
0.0
 10
-0.574710
 20
61.010079
 30
0.0
 10
2.528462
 20
52.416907
 30
0.0
 10
4.663857
 20
46.229414
 30
0.0
  0
SPLINE
  5
258
100
AcDbEntity
  8
Layer_1
 62
7
100
AcDbSpline
 70
8
 71
3
 72
8
 73
4
 74
0
 40
0
 40
0
 40
0
 40
0
 40
1
 40
1
 40
1
 40
1
 10
4.663857
 20
46.229414
 30
0.0
 10
8.536239
 20
35.008866
 30
0.0
 10
9.620973
 20
32.457515
 30
0.0
 10
10.234957
 20
33.126123
 30
0.0
  0
SPLINE
  5
259
100
AcDbEntity
  8
Layer_1
 62
7
100
AcDbSpline
 70
8
 71
3
 72
8
 73
4
 74
0
 40
0
 40
0
 40
0
 40
0
 40
1
 40
1
 40
1
 40
1
 10
10.234957
 20
33.126123
 30
0.0
 10
10.413539
 20
33.320296
 30
0.0
 10
11.747835
 20
36.854419
 30
0.0
 10
13.200393
 20
40.979424
 30
0.0
  0
SPLINE
  5
25a
100
AcDbEntity
  8
Layer_1
 62
7
100
AcDbSpline
 70
8
 71
3
 72
8
 73
4
 74
0
 40
0
 40
0
 40
0
 40
0
 40
1
 40
1
 40
1
 40
1
 10
13.200393
 20
40.979424
 30
0.0
 10
14.652950
 20
45.104400
 30
0.0
 10
16.707161
 20
50.841921
 30
0.0
 10
17.765335
 20
53.729405
 30
0.0
  0
SPLINE
  5
25b
100
AcDbEntity
  8
Layer_1
 62
7
100
AcDbSpline
 70
8
 71
3
 72
8
 73
4
 74
0
 40
0
 40
0
 40
0
 40
0
 40
1
 40
1
 40
1
 40
1
 10
17.765335
 20
53.729405
 30
0.0
 10
25.060352
 20
73.636214
 30
0.0
 10
25.078437
 20
73.712013
 30
0.0
 10
23.140957
 20
76.273569
 30
0.0
  0
SPLINE
  5
25c
100
AcDbEntity
  8
Layer_1
 62
7
100
AcDbSpline
 70
8
 71
3
 72
8
 73
4
 74
0
 40
0
 40
0
 40
0
 40
0
 40
1
 40
1
 40
1
 40
1
 10
23.140957
 20
76.273569
 30
0.0
 10
22.535335
 20
77.074271
 30
0.0
 10
22.029095
 20
77.982548
 30
0.0
 10
22.015971
 20
78.291921
 30
0.0
  0
SPLINE
  5
25d
100
AcDbEntity
  8
Layer_1
 62
7
100
AcDbSpline
 70
8
 71
3
 72
8
 73
4
 74
0
 40
0
 40
0
 40
0
 40
0
 40
1
 40
1
 40
1
 40
1
 10
22.015971
 20
78.291921
 30
0.0
 10
22.001798
 20
78.601294
 30
0.0
 10
25.264560
 20
78.854400
 30
0.0
 10
29.264244
 20
78.854400
 30
0.0
  0
LWPOLYLINE
  5
25e
100
AcDbEntity
  8
Layer_1
 62
7
100
AcDbPolyline
 90
5
 70
0
 10
-7.695198
 20
78.854400
 30
0.0
 10
-2.132518
 20
78.854400
 30
0.0
 10
-3.688993
 20
76.012809
 30
0.0
 10
-5.245497
 20
73.171219
 30
0.0
 10
-2.232099
 20
65.325317
 30
0.0
  0
SPLINE
  5
25f
100
AcDbEntity
  8
Layer_1
 62
7
100
AcDbSpline
 70
8
 71
3
 72
8
 73
4
 74
0
 40
0
 40
0
 40
0
 40
0
 40
1
 40
1
 40
1
 40
1
 10
34.274310
 20
76.416917
 30
0.0
 10
30.689362
 20
72.553890
 30
0.0
 10
30.133148
 20
71.334425
 30
0.0
 10
22.387650
 20
50.354419
 30
0.0
  0
SPLINE
  5
260
100
AcDbEntity
  8
Layer_1
 62
7
100
AcDbSpline
 70
8
 71
3
 72
8
 73
4
 74
0
 40
0
 40
0
 40
0
 40
0
 40
1
 40
1
 40
1
 40
1
 10
22.387650
 20
50.354419
 30
0.0
 10
13.853665
 20
27.238677
 30
0.0
 10
9.361347
 20
15.721172
 30
0.0
 10
8.553076
 20
14.885121
 30
0.0
  0
SPLINE
  5
261
100
AcDbEntity
  8
Layer_1
 62
7
100
AcDbSpline
 70
8
 71
3
 72
8
 73
4
 74
0
 40
0
 40
0
 40
0
 40
0
 40
1
 40
1
 40
1
 40
1
 10
8.553076
 20
14.885121
 30
0.0
 10
8.237070
 20
14.558258
 30
0.0
 10
7.645423
 20
14.726948
 30
0.0
 10
7.238311
 20
15.260117
 30
0.0
  0
LWPOLYLINE
  5
262
100
AcDbEntity
  8
Layer_1
 62
7
100
AcDbPolyline
 90
3
 70
0
 10
29.264244
 20
78.854400
 30
0.0
 10
36.536357
 20
78.854400
 30
0.0
 10
34.274310
 20
76.416917
 30
0.0
  0
LWPOLYLINE
  5
263
100
AcDbEntity
  8
Layer_1
 62
7
100
AcDbPolyline
 90
1
 70
1
 10
7.238311
 20
15.260117
 30
0.0
  0
ENDSEC
  0
SECTION
  2
OBJECTS
  0
DICTIONARY
  5
C
330
0
100
AcDbDictionary
  3
ACAD_GROUP
350
D
  3
ACAD_MLINESTYLE
350
17
  0
DICTIONARY
  5
D
330
C
100
AcDbDictionary
  0
DICTIONARY
  5
1A
330
C
100
AcDbDictionary
  0
DICTIONARY
  5
17
330
C
100
AcDbDictionary
  3
STANDARD
350
18
  0
DICTIONARY
  5
19
330
C
100
AcDbDictionary
  0
ENDSEC
  0
EOF
